  0
SECTION
  2
HEADER
  9
$ACADVER
  1
AC1015
  9
$ACADMAINTVER
 70
    20
  9
$DWGCODEPAGE
  3
ANSI_932
  9
$INSBASE
 10
0.0
 20
0.0
 30
0.0
  9
$EXTMIN
 10
-260.0219709798951
 20
-399.8393251062497
 30
-0.0015258207003583
  9
$EXTMAX
 10
460.0219743326561
 20
670.6280480280329
 30
0.0000000349246037
  9
$LIMMIN
 10
0.0
 20
0.0
  9
$LIMMAX
 10
0.0
 20
0.0
  9
$ORTHOMODE
 70
     0
  9
$REGENMODE
 70
     1
  9
$FILLMODE
 70
     1
  9
$QTEXTMODE
 70
     0
  9
$MIRRTEXT
 70
     1
  9
$LTSCALE
 40
20.32
  9
$ATTMODE
 70
     1
  9
$TEXTSIZE
 40
0.0
  9
$TRACEWID
 40
1.0
  9
$TEXTSTYLE
  7
STANDARD
  9
$CLAYER
  8
DATA
  9
$CELTYPE
  6
ByLayer
  9
$CECOLOR
 62
   256
  9
$CELTSCALE
 40
1.0
  9
$DISPSILH
 70
     0
  9
$DIMSCALE
 40
1.0
  9
$DIMASZ
 40
0.18
  9
$DIMEXO
 40
0.0625
  9
$DIMDLI
 40
0.38
  9
$DIMRND
 40
0.0
  9
$DIMDLE
 40
0.0
  9
$DIMEXE
 40
0.18
  9
$DIMTP
 40
0.0
  9
$DIMTM
 40
0.0
  9
$DIMTXT
 40
0.18
  9
$DIMCEN
 40
0.09
  9
$DIMTSZ
 40
0.0
  9
$DIMTOL
 70
     0
  9
$DIMLIM
 70
     0
  9
$DIMTIH
 70
     1
  9
$DIMTOH
 70
     1
  9
$DIMSE1
 70
     0
  9
$DIMSE2
 70
     0
  9
$DIMTAD
 70
     0
  9
$DIMZIN
 70
     0
  9
$DIMBLK
  1

  9
$DIMASO
 70
     1
  9
$DIMSHO
 70
     1
  9
$DIMPOST
  1

  9
$DIMAPOST
  1

  9
$DIMALT
 70
     0
  9
$DIMALTD
 70
     2
  9
$DIMALTF
 40
25.4
  9
$DIMLFAC
 40
1.0
  9
$DIMTOFL
 70
     0
  9
$DIMTVP
 40
0.0
  9
$DIMTIX
 70
     0
  9
$DIMSOXD
 70
     0
  9
$DIMSAH
 70
     0
  9
$DIMBLK1
  1

  9
$DIMBLK2
  1

  9
$DIMSTYLE
  2
STANDARD
  9
$DIMCLRD
 70
     0
  9
$DIMCLRE
 70
     0
  9
$DIMCLRT
 70
     0
  9
$DIMTFAC
 40
1.0
  9
$DIMGAP
 40
0.09
  9
$DIMJUST
 70
     0
  9
$DIMSD1
 70
     0
  9
$DIMSD2
 70
     0
  9
$DIMTOLJ
 70
     1
  9
$DIMTZIN
 70
     0
  9
$DIMALTZ
 70
     0
  9
$DIMALTTZ
 70
     0
  9
$DIMUPT
 70
     0
  9
$DIMDEC
 70
     4
  9
$DIMTDEC
 70
     4
  9
$DIMALTU
 70
     2
  9
$DIMALTTD
 70
     2
  9
$DIMTXSTY
  7
STANDARD
  9
$DIMAUNIT
 70
     0
  9
$DIMADEC
 70
     0
  9
$DIMALTRND
 40
0.0
  9
$DIMAZIN
 70
     0
  9
$DIMDSEP
 70
    46
  9
$DIMATFIT
 70
     3
  9
$DIMFRAC
 70
     0
  9
$DIMLDRBLK
  1

  9
$DIMLUNIT
 70
     2
  9
$DIMLWD
 70
    -2
  9
$DIMLWE
 70
    -2
  9
$DIMTMOVE
 70
     0
  9
$LUNITS
 70
     2
  9
$LUPREC
 70
     4
  9
$SKETCHINC
 40
0.1
  9
$FILLETRAD
 40
0.0
  9
$AUNITS
 70
     0
  9
$AUPREC
 70
     0
  9
$MENU
  1
acad
  9
$ELEVATION
 40
0.0
  9
$PELEVATION
 40
0.0
  9
$THICKNESS
 40
0.0
  9
$LIMCHECK
 70
     0
  9
$CHAMFERA
 40
0.0
  9
$CHAMFERB
 40
0.0
  9
$CHAMFERC
 40
0.0
  9
$CHAMFERD
 40
0.0
  9
$SKPOLY
 70
     0
  9
$TDCREATE
 40
2456128.677835648
  9
$TDUCREATE
 40
2456128.302835648
  9
$TDUPDATE
 40
2456128.683804028
  9
$TDUUPDATE
 40
2456128.308804028
  9
$TDINDWG
 40
0.0005226968
  9
$TDUSRTIMER
 40
0.0005225116
  9
$USRTIMER
 70
     1
  9
$ANGBASE
 50
0.0
  9
$ANGDIR
 70
     0
  9
$PDMODE
 70
     1
  9
$PDSIZE
 40
-2.0
  9
$PLINEWID
 40
0.0
  9
$SPLFRAME
 70
     0
  9
$SPLINETYPE
 70
     6
  9
$SPLINESEGS
 70
     8
  9
$HANDSEED
  5
3FF
  9
$SURFTAB1
 70
     6
  9
$SURFTAB2
 70
     6
  9
$SURFTYPE
 70
     6
  9
$SURFU
 70
     6
  9
$SURFV
 70
     6
  9
$UCSBASE
  2

  9
$UCSNAME
  2

  9
$UCSORG
 10
0.0
 20
0.0
 30
0.0
  9
$UCSXDIR
 10
1.0
 20
0.0
 30
0.0
  9
$UCSYDIR
 10
0.0
 20
1.0
 30
0.0
  9
$UCSORTHOREF
  2

  9
$UCSORTHOVIEW
 70
     0
  9
$UCSORGTOP
 10
0.0
 20
0.0
 30
0.0
  9
$UCSORGBOTTOM
 10
0.0
 20
0.0
 30
0.0
  9
$UCSORGLEFT
 10
0.0
 20
0.0
 30
0.0
  9
$UCSORGRIGHT
 10
0.0
 20
0.0
 30
0.0
  9
$UCSORGFRONT
 10
0.0
 20
0.0
 30
0.0
  9
$UCSORGBACK
 10
0.0
 20
0.0
 30
0.0
  9
$PUCSBASE
  2

  9
$PUCSNAME
  2

  9
$PUCSORG
 10
0.0
 20
0.0
 30
0.0
  9
$PUCSXDIR
 10
1.0
 20
0.0
 30
0.0
  9
$PUCSYDIR
 10
0.0
 20
1.0
 30
0.0
  9
$PUCSORTHOREF
  2

  9
$PUCSORTHOVIEW
 70
     0
  9
$PUCSORGTOP
 10
0.0
 20
0.0
 30
0.0
  9
$PUCSORGBOTTOM
 10
0.0
 20
0.0
 30
0.0
  9
$PUCSORGLEFT
 10
0.0
 20
0.0
 30
0.0
  9
$PUCSORGRIGHT
 10
0.0
 20
0.0
 30
0.0
  9
$PUCSORGFRONT
 10
0.0
 20
0.0
 30
0.0
  9
$PUCSORGBACK
 10
0.0
 20
0.0
 30
0.0
  9
$USERI1
 70
     0
  9
$USERI2
 70
     0
  9
$USERI3
 70
     0
  9
$USERI4
 70
     0
  9
$USERI5
 70
     0
  9
$USERR1
 40
0.0
  9
$USERR2
 40
0.0
  9
$USERR3
 40
0.0
  9
$USERR4
 40
0.0
  9
$USERR5
 40
0.0
  9
$WORLDVIEW
 70
     1
  9
$SHADEDGE
 70
     3
  9
$SHADEDIF
 70
    70
  9
$TILEMODE
 70
     1
  9
$MAXACTVP
 70
    64
  9
$PINSBASE
 10
0.0
 20
0.0
 30
0.0
  9
$PLIMCHECK
 70
     0
  9
$PEXTMIN
 10
1.000000000000000E+20
 20
1.000000000000000E+20
 30
1.000000000000000E+20
  9
$PEXTMAX
 10
-1.000000000000000E+20
 20
-1.000000000000000E+20
 30
-1.000000000000000E+20
  9
$PLIMMIN
 10
0.0
 20
0.0
  9
$PLIMMAX
 10
12.0
 20
9.0
  9
$UNITMODE
 70
     0
  9
$VISRETAIN
 70
     0
  9
$PLINEGEN
 70
     1
  9
$PSLTSCALE
 70
     0
  9
$TREEDEPTH
 70
  3020
  9
$CMLSTYLE
  2
Standard
  9
$CMLJUST
 70
     0
  9
$CMLSCALE
 40
1.0
  9
$PROXYGRAPHICS
 70
     1
  9
$MEASUREMENT
 70
     0
  9
$CELWEIGHT
370
    -1
  9
$ENDCAPS
280
     0
  9
$JOINSTYLE
280
     0
  9
$LWDISPLAY
290
     0
  9
$INSUNITS
 70
     0
  9
$HYPERLINKBASE
  1

  9
$STYLESHEET
  1

  9
$XEDIT
290
     1
  9
$CEPSNTYPE
380
     0
  9
$PSTYLEMODE
290
     1
  9
$FINGERPRINTGUID
  2
{91B10D85-96FF-4D0B-B307-70D3F04BF893}
  9
$VERSIONGUID
  2
{CC1B1196-5D10-4416-BA9F-61CA4272E72B}
  9
$EXTNAMES
290
     1
  9
$PSVPSCALE
 40
0.0
  9
$OLESTARTUP
290
     0
  0
ENDSEC
  0
SECTION
  2
CLASSES
  0
CLASS
  1
ACDBDICTIONARYWDFLT
  2
AcDbDictionaryWithDefault
  3
ObjectDBX Classes
 90
        0
280
     0
281
     0
  0
CLASS
  1
MATERIAL
  2
AcDbMaterial
  3
ObjectDBX Classes
 90
     1153
280
     0
281
     0
  0
CLASS
  1
VISUALSTYLE
  2
AcDbVisualStyle
  3
ObjectDBX Classes
 90
     4095
280
     0
281
     0
  0
CLASS
  1
SCALE
  2
AcDbScale
  3
ObjectDBX Classes
 90
     1153
280
     0
281
     0
  0
CLASS
  1
TABLESTYLE
  2
AcDbTableStyle
  3
ObjectDBX Classes
 90
     4095
280
     0
281
     0
  0
CLASS
  1
MLEADERSTYLE
  2
AcDbMLeaderStyle
  3
ACDB_MLEADERSTYLE_CLASS
 90
     4095
280
     0
281
     0
  0
CLASS
  1
ACDB_TEXTOBJECTCONTEXTDATA_CLASS
  2
AcDbTextObjectContextData
  3
ObjectDBX Classes
 90
     1153
280
     0
281
     0
  0
CLASS
  1
DICTIONARYVAR
  2
AcDbDictionaryVar
  3
ObjectDBX Classes
 90
        0
280
     0
281
     0
  0
CLASS
  1
CELLSTYLEMAP
  2
AcDbCellStyleMap
  3
ObjectDBX Classes
 90
     1152
280
     0
281
     0
  0
CLASS
  1
ACDBPLACEHOLDER
  2
AcDbPlaceHolder
  3
ObjectDBX Classes
 90
        0
280
     0
281
     0
  0
CLASS
  1
LAYOUT
  2
AcDbLayout
  3
ObjectDBX Classes
 90
        0
280
     0
281
     0
  0
ENDSEC
  0
SECTION
  2
TABLES
  0
TABLE
  2
VPORT
  5
1F0
330
0
100
AcDbSymbolTable
 70
     1
  0
VPORT
  5
258
330
1F0
100
AcDbSymbolTableRecord
100
AcDbViewportTableRecord
  2
*ACTIVE
 70
     0
 10
0.0
 20
0.0
 11
1.0
 21
1.0
 12
100.0000016763805
 22
136.4681874872234
 13
0.0
 23
0.0
 14
1.0
 24
1.0
 15
0.0
 25
0.0
 16
0.0
 26
0.0
 36
1.0
 17
0.0
 27
0.0
 37
0.0
 40
1076.676850581605
 41
2.154046997389034
 42
50.0
 43
0.0
 44
0.0
 50
0.0
 51
0.0
 71
     0
 72
  2000
 73
     1
 74
     1
 75
     0
 76
     0
 77
     0
 78
     0
281
     0
 65
     1
110
0.0
120
0.0
130
0.0
111
1.0
121
0.0
131
0.0
112
0.0
122
1.0
132
0.0
 79
     0
146
0.0
1001
ACAD_NAV_VCDISPLAY
1070
     3
  0
ENDTAB
  0
TABLE
  2
LTYPE
  5
1ED
330
0
100
AcDbSymbolTable
 70
    12
  0
LTYPE
  5
242
330
1ED
100
AcDbSymbolTableRecord
100
AcDbLinetypeTableRecord
  2
ByBlock
 70
     0
  3

 72
    65
 73
     0
 40
0.0
  0
LTYPE
  5
243
330
1ED
100
AcDbSymbolTableRecord
100
AcDbLinetypeTableRecord
  2
ByLayer
 70
     0
  3

 72
    65
 73
     0
 40
0.0
  0
LTYPE
  5
244
330
1ED
100
AcDbSymbolTableRecord
100
AcDbLinetypeTableRecord
  2
CONTINUOUS
 70
     0
  3
Solid line
 72
    65
 73
     0
 40
0.0
  0
ENDTAB
  0
TABLE
  2
LAYER
  5
1EA
330
0
100
AcDbSymbolTable
 70
     5
  0
LAYER
  5
23C
330
1EA
100
AcDbSymbolTableRecord
100
AcDbLayerTableRecord
  2
0
 70
     0
 62
     7
  6
CONTINUOUS
370
    -3
390
1F7
  0
LAYER
  5
257
330
1EA
100
AcDbSymbolTableRecord
100
AcDbLayerTableRecord
  2
DATA
 70
     0
 62
     7
  6
CONTINUOUS
370
    -3
390
1F7
  0
LAYER
  5
264
330
1EA
100
AcDbSymbolTableRecord
100
AcDbLayerTableRecord
  2
HIBINO-BASE
 70
     0
 62
     7
  6
CONTINUOUS
370
    -3
390
1F7
  0
LAYER
  5
265
330
1EA
100
AcDbSymbolTableRecord
100
AcDbLayerTableRecord
  2
SPEC
 70
     0
 62
     7
  6
CONTINUOUS
370
    -3
390
1F7
  0
LAYER
  5
266
330
1EA
100
AcDbSymbolTableRecord
100
AcDbLayerTableRecord
  2
DIMNSIONS
 70
     0
 62
     7
  6
CONTINUOUS
370
    -3
390
1F7
  0
ENDTAB
  0
TABLE
  2
STYLE
  5
1EB
330
0
100
AcDbSymbolTable
 70
     3
  0
STYLE
  5
23D
330
1EB
100
AcDbSymbolTableRecord
100
AcDbTextStyleTableRecord
  2
STANDARD
 70
     0
 40
0.0
 41
1.0
 50
0.0
 71
     0
 42
0.0
  3
txt
  4
BIGFONT.SHX
  0
ENDTAB
  0
TABLE
  2
VIEW
  5
1EE
330
0
100
AcDbSymbolTable
 70
     0
  0
ENDTAB
  0
TABLE
  2
UCS
  5
1EF
330
0
100
AcDbSymbolTable
 70
     0
  0
ENDTAB
  0
TABLE
  2
APPID
  5
1F1
330
0
100
AcDbSymbolTable
 70
     4
  0
APPID
  5
23E
330
1F1
100
AcDbSymbolTableRecord
100
AcDbRegAppTableRecord
  2
ACAD
 70
     0
  0
APPID
  5
245
330
1F1
100
AcDbSymbolTableRecord
100
AcDbRegAppTableRecord
  2
AcadAnnotative
 70
     0
  0
APPID
  5
3C1
330
1F1
100
AcDbSymbolTableRecord
100
AcDbRegAppTableRecord
  2
ACAD_NAV_VCDISPLAY
 70
     0
  0
APPID
  5
3FA
330
1F1
100
AcDbSymbolTableRecord
100
AcDbRegAppTableRecord
  2
ACAD_MLEADERVER
 70
     0
  0
ENDTAB
  0
TABLE
  2
DIMSTYLE
  5
1F2
330
0
100
AcDbSymbolTable
 70
     2
100
AcDbDimStyleTable
 71
     0
  0
DIMSTYLE
105
23F
330
1F2
100
AcDbSymbolTableRecord
100
AcDbDimStyleTableRecord
  2
STANDARD
 70
     0
279
     2
340
23D
  0
ENDTAB
  0
TABLE
  2
BLOCK_RECORD
  5
1E9
330
0
100
AcDbSymbolTable
 70
     0
  0
BLOCK_RECORD
  5
253
330
1E9
100
AcDbSymbolTableRecord
100
AcDbBlockTableRecord
  2
*Model_Space
340
256
  0
BLOCK_RECORD
  5
24F
330
1E9
100
AcDbSymbolTableRecord
100
AcDbBlockTableRecord
  2
*Paper_Space
340
252
  0
ENDTAB
  0
ENDSEC
  0
SECTION
  2
BLOCKS
  0
BLOCK
  5
254
330
253
100
AcDbEntity
  8
0
100
AcDbBlockBegin
  2
*Model_Space
 70
     0
 10
0.0
 20
0.0
 30
0.0
  3
*Model_Space
  1

  0
ENDBLK
  5
255
330
253
100
AcDbEntity
  8
0
100
AcDbBlockEnd
  0
BLOCK
  5
250
330
24F
100
AcDbEntity
 67
     1
  8
0
100
AcDbBlockBegin
  2
*Paper_Space
 70
     0
 10
0.0
 20
0.0
 30
0.0
  3
*Paper_Space
  1

  0
ENDBLK
  5
251
330
24F
100
AcDbEntity
 67
     1
  8
0
100
AcDbBlockEnd
  0
ENDSEC
  0
SECTION
  2
ENTITIES
  0
LINE
  5
2D
330
253
100
AcDbEntity
  8
HIBINO-BASE
  6
Continuous
 62
     7
100
AcDbLine
 10
-260.0
 20
670.5954449999998
 30
0.0
 11
460.0
 21
670.5954449999998
 31
0.0
  0
LINE
  5
2E
330
253
100
AcDbEntity
  8
HIBINO-BASE
  6
Continuous
 62
     7
100
AcDbLine
 10
460.0
 20
-369.404555
 30
0.0
 11
-260.0
 21
-369.404555
 31
0.0
  0
LINE
  5
2F
330
253
100
AcDbEntity
  8
HIBINO-BASE
  6
Continuous
 62
     7
100
AcDbLine
 10
-260.0
 20
-369.404555
 30
0.0
 11
-260.0
 21
670.5954449999998
 31
0.0
  0
TEXT
  5
30
102
{ACAD_XDICTIONARY
360
3B5
102
}
330
253
100
AcDbEntity
  8
HIBINO-BASE
 62
     7
100
AcDbText
 10
-231.264
 20
-395.0392661999998
 30
0.0
 40
14.40017671875
  1
Hibino Corporation
 41
0.7
 11
-231.264
 21
-380.6390894812498
 31
0.0
100
AcDbText
 73
     3
1001
AcadAnnotative
1000
AnnotativeData
1002
{
1070
     1
1070
     0
1002
}
  0
LINE
  5
31
330
253
100
AcDbEntity
  8
HIBINO-BASE
  6
Continuous
 62
     7
100
AcDbLine
 10
460.0
 20
670.5954449999998
 30
0.0
 11
460.0
 21
-369.404555
 31
0.0
  0
LINE
  5
32
330
253
100
AcDbEntity
  8
HIBINO-BASE
  6
Continuous
 62
     7
100
AcDbLine
 10
100.0
 20
-279.404555
 30
0.0
 11
460.0
 21
-279.404555
 31
0.0
  0
LINE
  5
33
330
253
100
AcDbEntity
  8
HIBINO-BASE
  6
Continuous
 62
     7
100
AcDbLine
 10
100.0
 20
-369.404555
 30
0.0
 11
100.0
 21
-279.404555
 31
0.0
  0
TEXT
  5
34
102
{ACAD_XDICTIONARY
360
3B1
102
}
330
253
100
AcDbEntity
  8
HIBINO-BASE
 62
     7
100
AcDbText
 10
103.6
 20
-289.4393283333333
 30
0.0
 40
6.515364583333332
  1
NOTE
 41
0.7
 11
103.6
 21
-282.92396375
 31
0.0
100
AcDbText
 73
     3
1001
AcadAnnotative
1000
AnnotativeData
1002
{
1070
     1
1070
     0
1002
}
  0
LINE
  5
35
330
253
100
AcDbEntity
  8
HIBINO-BASE
  6
Continuous
 62
     7
100
AcDbLine
 10
240.0
 20
-369.404555
 30
0.0
 11
240.0
 21
-279.404555
 31
0.0
  0
TEXT
  5
36
102
{ACAD_XDICTIONARY
360
3AD
102
}
330
253
100
AcDbEntity
  8
HIBINO-BASE
 62
     7
100
AcDbText
 10
243.6
 20
-289.4393283333333
 30
0.0
 40
6.515364583333332
  1
TITLE
 41
0.7
 11
243.6
 21
-282.92396375
 31
0.0
100
AcDbText
 73
     3
1001
AcadAnnotative
1000
AnnotativeData
1002
{
1070
     1
1070
     0
1002
}
  0
TEXT
  5
37
102
{ACAD_XDICTIONARY
360
3A9
102
}
330
253
100
AcDbEntity
  8
HIBINO-BASE
 62
     7
100
AcDbText
 10
300.27356
 20
-395.0392661999998
 30
0.0
 40
14.40017671875
  1
ヒビノ株式会社
 41
0.7
 11
300.27356
 21
-380.6390894812498
 31
0.0
100
AcDbText
 73
     3
1001
AcadAnnotative
1000
AnnotativeData
1002
{
1070
     1
1070
     0
1002
}
  0
LINE
  5
38
330
253
100
AcDbEntity
  8
HIBINO-BASE
  6
Continuous
 62
     7
100
AcDbLine
 10
100.0
 20
-329.404555
 30
0.0
 11
460.0
 21
-329.404555
 31
0.0
  0
TEXT
  5
39
102
{ACAD_XDICTIONARY
360
3A5
102
}
330
253
100
AcDbEntity
  8
HIBINO-BASE
 62
     7
100
AcDbText
 10
293.6
 20
-339.2140483333333
 30
0.0
 40
6.515364583333332
  1
DRAWN
 41
0.7
 11
293.6
 21
-332.69868375
 31
0.0
100
AcDbText
 73
     3
1001
AcadAnnotative
1000
AnnotativeData
1002
{
1070
     1
1070
     0
1002
}
  0
TEXT
  5
3A
102
{ACAD_XDICTIONARY
360
3A1
102
}
330
253
100
AcDbEntity
  8
HIBINO-BASE
 62
     7
100
AcDbText
 10
193.6
 20
-339.2140483333333
 30
0.0
 40
6.515364583333332
  1
DATE
 41
0.7
 11
193.6
 21
-332.69868375
 31
0.0
100
AcDbText
 73
     3
1001
AcadAnnotative
1000
AnnotativeData
1002
{
1070
     1
1070
     0
1002
}
  0
TEXT
  5
3B
102
{ACAD_XDICTIONARY
360
39D
102
}
330
253
100
AcDbEntity
  8
HIBINO-BASE
 62
     7
100
AcDbText
 10
153.5999999999999
 20
-339.2140483333333
 30
0.0
 40
6.515364583333332
  1
SCALE
 41
0.7
 11
153.5999999999999
 21
-332.69868375
 31
0.0
100
AcDbText
 73
     3
1001
AcadAnnotative
1000
AnnotativeData
1002
{
1070
     1
1070
     0
1002
}
  0
TEXT
  5
3C
102
{ACAD_XDICTIONARY
360
399
102
}
330
253
100
AcDbEntity
  8
HIBINO-BASE
 62
     7
100
AcDbText
 10
243.6
 20
-339.2140483333333
 30
0.0
 40
6.515364583333332
  1
DESIGN
 41
0.7
 11
243.6
 21
-332.69868375
 31
0.0
100
AcDbText
 73
     3
1001
AcadAnnotative
1000
AnnotativeData
1002
{
1070
     1
1070
     0
1002
}
  0
TEXT
  5
3D
102
{ACAD_XDICTIONARY
360
395
102
}
330
253
100
AcDbEntity
  8
HIBINO-BASE
 62
     7
100
AcDbText
 10
393.6
 20
-339.2140483333333
 30
0.0
 40
6.515364583333332
  1
DRAWING NO.
 41
0.7
 11
393.6
 21
-332.69868375
 31
0.0
100
AcDbText
 73
     3
1001
AcadAnnotative
1000
AnnotativeData
1002
{
1070
     1
1070
     0
1002
}
  0
TEXT
  5
3E
102
{ACAD_XDICTIONARY
360
391
102
}
330
253
100
AcDbEntity
  8
HIBINO-BASE
 62
     7
100
AcDbText
 10
343.6
 20
-339.2140483333333
 30
0.0
 40
6.515364583333332
  1
CHECK
 41
0.7
 11
343.6
 21
-332.69868375
 31
0.0
100
AcDbText
 73
     3
1001
AcadAnnotative
1000
AnnotativeData
1002
{
1070
     1
1070
     0
1002
}
  0
LINE
  5
3F
330
253
100
AcDbEntity
  8
HIBINO-BASE
  6
Continuous
 62
     7
100
AcDbLine
 10
157.5
 20
-364.404555
 30
0.0
 11
172.5
 21
-349.404555
 31
0.0
  0
TEXT
  5
40
102
{ACAD_XDICTIONARY
360
38D
102
}
330
253
100
AcDbEntity
  8
HIBINO-BASE
 62
     7
100
AcDbText
 10
155.0
 20
-353.8403283333333
 30
0.0
 40
6.515364583333332
  1
1
 41
0.7
 11
155.0
 21
-347.32496375
 31
0.0
100
AcDbText
 73
     3
1001
AcadAnnotative
1000
AnnotativeData
1002
{
1070
     1
1070
     0
1002
}
  0
LINE
  5
41
330
253
100
AcDbEntity
  8
HIBINO-BASE
  6
Continuous
 62
     7
100
AcDbLine
 10
150.0
 20
-369.404555
 30
0.0
 11
150.0
 21
-329.404555
 31
0.0
  0
LINE
  5
42
330
253
100
AcDbEntity
  8
HIBINO-BASE
  6
Continuous
 62
     7
100
AcDbLine
 10
190.0
 20
-369.404555
 30
0.0
 11
190.0
 21
-329.404555
 31
0.0
  0
LINE
  5
43
330
253
100
AcDbEntity
  8
HIBINO-BASE
  6
Continuous
 62
     7
100
AcDbLine
 10
290.0
 20
-329.404555
 30
0.0
 11
290.0
 21
-369.404555
 31
0.0
  0
LINE
  5
44
330
253
100
AcDbEntity
  8
HIBINO-BASE
  6
Continuous
 62
     7
100
AcDbLine
 10
390.0
 20
-329.404555
 30
0.0
 11
390.0
 21
-369.404555
 31
0.0
  0
LINE
  5
45
330
253
100
AcDbEntity
  8
HIBINO-BASE
  6
Continuous
 62
     7
100
AcDbLine
 10
339.9999999999999
 20
-369.404555
 30
0.0
 11
339.9999999999999
 21
-329.404555
 31
0.0
  0
TEXT
  5
46
102
{ACAD_XDICTIONARY
360
389
102
}
330
253
100
AcDbEntity
  8
HIBINO-BASE
 62
     7
100
AcDbText
 10
193.42616
 20
-357.9499683333334
 30
0.0
 40
6.515364583333332
  1
'12.07.
 41
0.7
 11
193.42616
 21
-351.43460375
 31
0.0
100
AcDbText
 73
     3
1001
AcadAnnotative
1000
AnnotativeData
1002
{
1070
     1
1070
     0
1002
}
  0
TEXT
  5
47
102
{ACAD_XDICTIONARY
360
385
102
}
330
253
100
AcDbEntity
  8
HIBINO-BASE
 62
     7
100
AcDbText
 10
170.0
 20
-361.3403283333334
 30
0.0
 40
6.515364583333332
  1
4
 41
0.7
 11
170.0
 21
-354.82496375
 31
0.0
100
AcDbText
 73
     3
1001
AcadAnnotative
1000
AnnotativeData
1002
{
1070
     1
1070
     0
1002
}
  0
TEXT
  5
48
102
{ACAD_XDICTIONARY
360
381
102
}
330
253
100
AcDbEntity
  8
HIBINO-BASE
 62
     7
100
AcDbText
 10
296.0232400441385
 20
-357.9499683333334
 30
0.0
 40
6.515364583333332
  1
Ootake
 41
0.7
 11
296.0232400441385
 21
-351.43460375
 31
0.0
100
AcDbText
 73
     3
1001
AcadAnnotative
1000
AnnotativeData
1002
{
1070
     1
1070
     0
1002
}
  0
TEXT
  5
49
102
{ACAD_XDICTIONARY
360
37D
102
}
330
253
100
AcDbEntity
  8
HIBINO-BASE
 62
     7
100
AcDbText
 10
115.5333333333334
 20
-361.500555
 30
0.0
 40
13.03072916666666
  1
A4
 41
0.7
 11
115.5333333333334
 21
-348.4698258333333
 31
0.0
100
AcDbText
 73
     3
1001
AcadAnnotative
1000
AnnotativeData
1002
{
1070
     1
1070
     0
1002
}
  0
TEXT
  5
4A
102
{ACAD_XDICTIONARY
360
379
102
}
330
253
100
AcDbEntity
  8
HIBINO-BASE
 62
     7
100
AcDbText
 10
103.8333333333333
 20
-339.882375
 30
0.0
 40
6.515364583333332
  1
PAPER SIZE
 41
0.7
 11
103.8333333333333
 21
-333.3670104166666
 31
0.0
100
AcDbText
 73
     3
1001
AcadAnnotative
1000
AnnotativeData
1002
{
1070
     1
1070
     0
1002
}
  0
LINE
  5
4B
330
253
100
AcDbEntity
  8
SPEC
  6
Continuous
 62
     7
100
AcDbLine
 10
-230.0
 20
630.5954449999997
 30
0.0
 11
360.0
 21
630.5954449999997
 31
0.0
  0
LINE
  5
4C
330
253
100
AcDbEntity
  8
SPEC
  6
Continuous
 62
     7
100
AcDbLine
 10
-230.0
 20
615.5954449999998
 30
0.0
 11
360.0
 21
615.5954449999998
 31
0.0
  0
LINE
  5
4D
330
253
100
AcDbEntity
  8
SPEC
  6
Continuous
 62
     7
100
AcDbLine
 10
-230.0
 20
555.5954449999999
 30
0.0
 11
360.0
 21
555.5954449999999
 31
0.0
  0
LINE
  5
4E
330
253
100
AcDbEntity
  8
SPEC
  6
Continuous
 62
     7
100
AcDbLine
 10
-100.0
 20
570.5954449999998
 30
0.0
 11
360.0
 21
570.5954449999998
 31
0.0
  0
LINE
  5
4F
330
253
100
AcDbEntity
  8
SPEC
  6
Continuous
 62
     7
100
AcDbLine
 10
-100.0
 20
585.5954449999997
 30
0.0
 11
360.0
 21
585.5954449999997
 31
0.0
  0
LINE
  5
50
330
253
100
AcDbEntity
  8
SPEC
  6
Continuous
 62
     7
100
AcDbLine
 10
-230.0
 20
540.5954449999999
 30
0.0
 11
360.0
 21
540.5954449999999
 31
0.0
  0
LINE
  5
51
330
253
100
AcDbEntity
  8
SPEC
  6
Continuous
 62
     7
100
AcDbLine
 10
-230.0
 20
510.5954449999999
 30
0.0
 11
360.0
 21
510.5954449999999
 31
0.0
  0
LINE
  5
52
330
253
100
AcDbEntity
  8
SPEC
  6
Continuous
 62
     7
100
AcDbLine
 10
-230.0
 20
525.5954449999999
 30
0.0
 11
360.0
 21
525.5954449999999
 31
0.0
  0
LINE
  5
53
330
253
100
AcDbEntity
  8
SPEC
  6
Continuous
 62
     7
100
AcDbLine
 10
-230.0
 20
495.5954449999999
 30
0.0
 11
360.0
 21
495.5954449999999
 31
0.0
  0
LINE
  5
54
330
253
100
AcDbEntity
  8
SPEC
  6
Continuous
 62
     7
100
AcDbLine
 10
-230.0
 20
480.5954449999999
 30
0.0
 11
360.0
 21
480.5954449999999
 31
0.0
  0
LINE
  5
55
330
253
100
AcDbEntity
  8
SPEC
  6
Continuous
 62
     7
100
AcDbLine
 10
-100.0
 20
600.5954449999998
 30
0.0
 11
360.0
 21
600.5954449999998
 31
0.0
  0
TEXT
  5
56
102
{ACAD_XDICTIONARY
360
375
102
}
330
253
100
AcDbEntity
  8
SPEC
 62
     7
100
AcDbText
 10
-97.40000000000001
 20
619.4024607702432
 30
0.0
 40
7.601244999999998
  1
ワイヤレス受信機
 41
0.7
 11
-97.40000000000001
 21
627.0037057702431
 31
0.0
100
AcDbText
 73
     3
1001
AcadAnnotative
1000
AnnotativeData
1002
{
1070
     1
1070
     0
1002
}
  0
LINE
  5
57
330
253
100
AcDbEntity
  8
SPEC
  6
Continuous
 62
     7
100
AcDbLine
 10
-230.0
 20
630.5954449999997
 30
0.0
 11
-230.0
 21
345.5954449999999
 31
0.0
  0
TEXT
  5
58
102
{ACAD_XDICTIONARY
360
371
102
}
330
253
100
AcDbEntity
  8
SPEC
 62
     7
100
AcDbText
 10
-225.0
 20
636.1685249999998
 30
0.0
 40
9.773046875
  1
仕様
 41
0.7
 11
-225.0
 21
645.9415718749998
 31
0.0
100
AcDbText
 73
     3
1001
AcadAnnotative
1000
AnnotativeData
1002
{
1070
     1
1070
     0
1002
}
  0
LINE
  5
59
330
253
100
AcDbEntity
  8
SPEC
  6
Continuous
 62
     7
100
AcDbLine
 10
-100.0
 20
630.5954449999997
 30
0.0
 11
-100.0
 21
345.5954449999999
 31
0.0
  0
LINE
  5
5A
330
253
100
AcDbEntity
  8
SPEC
  6
Continuous
 62
     7
100
AcDbLine
 10
360.0
 20
630.5954449999997
 30
0.0
 11
360.0
 21
345.5954449999999
 31
0.0
  0
TEXT
  5
5B
102
{ACAD_XDICTIONARY
360
36D
102
}
330
253
100
AcDbEntity
  8
SPEC
 62
     7
100
AcDbText
 10
-96.44334803015215
 20
424.2535774634191
 30
0.0
 40
7.601244999999998
  1
20～20、000Hz
 41
0.7
 11
-96.44334803015215
 21
431.8548224634191
 31
0.0
100
AcDbText
 73
     3
1001
AcadAnnotative
1000
AnnotativeData
1002
{
1070
     1
1070
     0
1002
}
  0
TEXT
  5
5C
102
{ACAD_XDICTIONARY
360
369
102
}
330
253
100
AcDbEntity
  8
SPEC
 62
     7
100
AcDbText
 10
-96.58951029188678
 20
439.0770902136865
 30
0.0
 40
7.601244999999998
  1
約30m
 41
0.7
 11
-96.58951029188678
 21
446.6783352136864
 31
0.0
100
AcDbText
 73
     3
1001
AcadAnnotative
1000
AnnotativeData
1002
{
1070
     1
1070
     0
1002
}
  0
TEXT
  5
5D
102
{ACAD_XDICTIONARY
360
365
102
}
330
253
100
AcDbEntity
  8
SPEC
 62
     7
100
AcDbText
 10
-227.191567752104
 20
499.2742036211429
 30
0.0
 40
7.601244999999998
  1
ダイバーシティ方式
 41
0.7
 11
-227.191567752104
 21
506.8754486211428
 31
0.0
100
AcDbText
 73
     3
1001
AcadAnnotative
1000
AnnotativeData
1002
{
1070
     1
1070
     0
1002
}
  0
TEXT
  5
5E
102
{ACAD_XDICTIONARY
360
361
102
}
330
253
100
AcDbEntity
  8
SPEC
 62
     7
100
AcDbText
 10
-226.6545989076425
 20
619.2630657776673
 30
0.0
 40
7.601244999999998
  1
形式
 41
0.7
 11
-226.6545989076425
 21
626.8643107776672
 31
0.0
100
AcDbText
 73
     3
1001
AcadAnnotative
1000
AnnotativeData
1002
{
1070
     1
1070
     0
1002
}
  0
TEXT
  5
5F
102
{ACAD_XDICTIONARY
360
35D
102
}
330
253
100
AcDbEntity
  8
SPEC
 62
     7
100
AcDbText
 10
-226.6480067858338
 20
394.4016024994342
 30
0.0
 40
7.601244999999998
  1
電源供給方法
 41
0.7
 11
-226.6480067858338
 21
402.0028474994342
 31
0.0
100
AcDbText
 73
     3
1001
AcadAnnotative
1000
AnnotativeData
1002
{
1070
     1
1070
     0
1002
}
  0
TEXT
  5
60
102
{ACAD_XDICTIONARY
360
359
102
}
330
253
100
AcDbEntity
  8
SPEC
 62
     7
100
AcDbText
 10
-226.3707575641077
 20
469.6843286351696
 30
0.0
 40
7.601244999999998
  1
使用チヤンネル選択方式
 41
0.7
 11
-226.3707575641077
 21
477.2855736351696
 31
0.0
100
AcDbText
 73
     3
1001
AcadAnnotative
1000
AnnotativeData
1002
{
1070
     1
1070
     0
1002
}
  0
TEXT
  5
61
102
{ACAD_XDICTIONARY
360
355
102
}
330
253
100
AcDbEntity
  8
SPEC
 62
     7
100
AcDbText
 10
-226.5218966792844
 20
454.0658932207608
 30
0.0
 40
7.601244999999998
  1
各チャネルの帯域幅
 41
0.7
 11
-226.5218966792844
 21
461.6671382207607
 31
0.0
100
AcDbText
 73
     3
1001
AcadAnnotative
1000
AnnotativeData
1002
{
1070
     1
1070
     0
1002
}
  0
TEXT
  5
62
102
{ACAD_XDICTIONARY
360
351
102
}
330
253
100
AcDbEntity
  8
SPEC
 62
     7
100
AcDbText
 10
-226.6586089594344
 20
514.3595847444754
 30
0.0
 40
7.601244999999998
  1
暗号化
 41
0.7
 11
-226.6586089594344
 21
521.9608297444754
 31
0.0
100
AcDbText
 73
     3
1001
AcadAnnotative
1000
AnnotativeData
1002
{
1070
     1
1070
     0
1002
}
  0
TEXT
  5
63
102
{ACAD_XDICTIONARY
360
34D
102
}
330
253
100
AcDbEntity
  8
SPEC
 62
     7
100
AcDbText
 10
-226.5834826422934
 20
484.7425729716162
 30
0.0
 40
7.601244999999998
  1
送信周波数
 41
0.7
 11
-226.5834826422934
 21
492.3438179716161
 31
0.0
100
AcDbText
 73
     3
1001
AcadAnnotative
1000
AnnotativeData
1002
{
1070
     1
1070
     0
1002
}
  0
TEXT
  5
64
102
{ACAD_XDICTIONARY
360
349
102
}
330
253
100
AcDbEntity
  8
SPEC
 62
     7
100
AcDbText
 10
-226.2886729428883
 20
544.3013289827587
 30
0.0
 40
7.601244999999998
  1
使用周波数帯域
 41
0.7
 11
-226.2886729428883
 21
551.9025739827586
 31
0.0
100
AcDbText
 73
     3
1001
AcadAnnotative
1000
AnnotativeData
1002
{
1070
     1
1070
     0
1002
}
  0
TEXT
  5
65
102
{ACAD_XDICTIONARY
360
345
102
}
330
253
100
AcDbEntity
  8
SPEC
 62
     7
100
AcDbText
 10
-226.7928735607073
 20
529.3379866884103
 30
0.0
 40
7.601244999999998
  1
変調方式
 41
0.7
 11
-226.7928735607073
 21
536.9392316884103
 31
0.0
100
AcDbText
 73
     3
1001
AcadAnnotative
1000
AnnotativeData
1002
{
1070
     1
1070
     0
1002
}
  0
TEXT
  5
66
102
{ACAD_XDICTIONARY
360
341
102
}
330
253
100
AcDbEntity
  8
SPEC
 62
     7
100
AcDbText
 10
-226.4792773050379
 20
439.2364620401729
 30
0.0
 40
7.601244999999998
  1
到達距離
 41
0.7
 11
-226.4792773050379
 21
446.837707040173
 31
0.0
100
AcDbText
 73
     3
1001
AcadAnnotative
1000
AnnotativeData
1002
{
1070
     1
1070
     0
1002
}
  0
TEXT
  5
67
102
{ACAD_XDICTIONARY
360
33D
102
}
330
253
100
AcDbEntity
  8
SPEC
 62
     7
100
AcDbText
 10
-226.2980481344344
 20
424.3758737444656
 30
0.0
 40
7.601244999999998
  1
周波数特性
 41
0.7
 11
-226.2980481344344
 21
431.9771187444656
 31
0.0
100
AcDbText
 73
     3
1001
AcadAnnotative
1000
AnnotativeData
1002
{
1070
     1
1070
     0
1002
}
  0
TEXT
  5
68
102
{ACAD_XDICTIONARY
360
339
102
}
330
253
100
AcDbEntity
  8
SPEC
 62
     7
100
AcDbText
 10
-96.87607413869656
 20
499.3142857553133
 30
0.0
 40
7.601244999999998
  1
デジタルダイバーシティ
 41
0.7
 11
-96.87607413869656
 21
506.9155307553132
 31
0.0
100
AcDbText
 73
     3
1001
AcadAnnotative
1000
AnnotativeData
1002
{
1070
     1
1070
     0
1002
}
  0
TEXT
  5
69
102
{ACAD_XDICTIONARY
360
335
102
}
330
253
100
AcDbEntity
  8
SPEC
 62
     7
100
AcDbText
 10
-96.39684160477301
 20
468.9018960796023
 30
0.0
 40
7.601244999999998
  1
DFS(動的周波数選択)
 41
0.7
 11
-96.39684160477301
 21
476.5031410796023
 31
0.0
100
AcDbText
 73
     3
1001
AcadAnnotative
1000
AnnotativeData
1002
{
1070
     1
1070
     0
1002
}
  0
TEXT
  5
6A
102
{ACAD_XDICTIONARY
360
331
102
}
330
253
100
AcDbEntity
  8
SPEC
 62
     7
100
AcDbText
 10
-97.02968114885116
 20
454.0897518003605
 30
0.0
 40
7.601244999999998
  1
16MHz
 41
0.7
 11
-97.02968114885116
 21
461.6909968003605
 31
0.0
100
AcDbText
 73
     3
1001
AcadAnnotative
1000
AnnotativeData
1002
{
1070
     1
1070
     0
1002
}
  0
TEXT
  5
6B
102
{ACAD_XDICTIONARY
360
32D
102
}
330
253
100
AcDbEntity
  8
SPEC
 62
     7
100
AcDbText
 10
-96.31633504775946
 20
408.5423187729068
 30
0.0
 40
7.601244999999998
  1
50\U+03A9
 41
0.7
 11
-96.31633504775946
 21
416.1435637729068
 31
0.0
100
AcDbText
 73
     3
1001
AcadAnnotative
1000
AnnotativeData
1002
{
1070
     1
1070
     0
1002
}
  0
TEXT
  5
6C
102
{ACAD_XDICTIONARY
360
329
102
}
330
253
100
AcDbEntity
  8
SPEC
 62
     7
100
AcDbText
 10
-96.88419645539568
 20
514.3747552495161
 30
0.0
 40
7.601244999999998
  1
128bit、AES
 41
0.7
 11
-96.88419645539568
 21
521.976000249516
 31
0.0
100
AcDbText
 73
     3
1001
AcadAnnotative
1000
AnnotativeData
1002
{
1070
     1
1070
     0
1002
}
  0
TEXT
  5
6D
102
{ACAD_XDICTIONARY
360
325
102
}
330
253
100
AcDbEntity
  8
SPEC
 62
     7
100
AcDbText
 10
-96.4413082747655
 20
484.2682208055757
 30
0.0
 40
7.601244999999998
  1
2412MHz、2438MHz、2462MHz
 41
0.7
 11
-96.4413082747655
 21
491.8694658055757
 31
0.0
100
AcDbText
 73
     3
1001
AcadAnnotative
1000
AnnotativeData
1002
{
1070
     1
1070
     0
1002
}
  0
TEXT
  5
6E
102
{ACAD_XDICTIONARY
360
321
102
}
330
253
100
AcDbEntity
  8
SPEC
 62
     7
100
AcDbText
 10
-96.24928518106109
 20
529.4440064
 30
0.0
 40
7.601244999999998
  1
OFDM
 41
0.7
 11
-96.24928518106109
 21
537.0452514
 31
0.0
100
AcDbText
 73
     3
1001
AcadAnnotative
1000
AnnotativeData
1002
{
1070
     1
1070
     0
1002
}
  0
TEXT
  5
6F
102
{ACAD_XDICTIONARY
360
31D
102
}
330
253
100
AcDbEntity
  8
SPEC
 62
     7
100
AcDbText
 10
-96.29991571432988
 20
544.3756907877614
 30
0.0
 40
7.601244999999998
  1
2.4GHz ISM
 41
0.7
 11
-96.29991571432988
 21
551.9769357877613
 31
0.0
100
AcDbText
 73
     3
1001
AcadAnnotative
1000
AnnotativeData
1002
{
1070
     1
1070
     0
1002
}
  0
LINE
  5
70
330
253
100
AcDbEntity
  8
SPEC
  6
Continuous
 62
     7
100
AcDbLine
 10
-230.0
 20
465.5954449999999
 30
0.0
 11
360.0
 21
465.5954449999999
 31
0.0
  0
LINE
  5
71
330
253
100
AcDbEntity
  8
SPEC
  6
Continuous
 62
     7
100
AcDbLine
 10
-230.0
 20
450.5954449999999
 30
0.0
 11
360.0
 21
450.5954449999999
 31
0.0
  0
LINE
  5
72
330
253
100
AcDbEntity
  8
SPEC
  6
Continuous
 62
     7
100
AcDbLine
 10
-230.0
 20
435.5954449999999
 30
0.0
 11
360.0
 21
435.5954449999999
 31
0.0
  0
LINE
  5
73
330
253
100
AcDbEntity
  8
SPEC
  6
Continuous
 62
     7
100
AcDbLine
 10
-230.0
 20
420.5954449999999
 30
0.0
 11
360.0
 21
420.5954449999999
 31
0.0
  0
LINE
  5
74
330
253
100
AcDbEntity
  8
SPEC
  6
Continuous
 62
     7
100
AcDbLine
 10
-230.0
 20
405.5954449999999
 30
0.0
 11
360.0
 21
405.5954449999999
 31
0.0
  0
TEXT
  5
75
102
{ACAD_XDICTIONARY
360
319
102
}
330
253
100
AcDbEntity
  8
SPEC
 62
     7
100
AcDbText
 10
-226.8181463192826
 20
409.359131661614
 30
0.0
 40
7.601244999999998
  1
アンテナ
 41
0.7
 11
-226.8181463192826
 21
416.960376661614
 31
0.0
100
AcDbText
 73
     3
1001
AcadAnnotative
1000
AnnotativeData
1002
{
1070
     1
1070
     0
1002
}
  0
TEXT
  5
76
102
{ACAD_XDICTIONARY
360
315
102
}
330
253
100
AcDbEntity
  8
SPEC
 62
     7
100
AcDbText
 10
-96.15734303310551
 20
394.1895518503777
 30
0.0
 40
7.601244999999998
  1
ACアダプター
 41
0.7
 11
-96.15734303310551
 21
401.7907968503776
 31
0.0
100
AcDbText
 73
     3
1001
AcadAnnotative
1000
AnnotativeData
1002
{
1070
     1
1070
     0
1002
}
  0
TEXT
  5
77
102
{ACAD_XDICTIONARY
360
311
102
}
330
253
100
AcDbEntity
  8
SPEC
 62
     7
100
AcDbText
 10
-226.491480595653
 20
379.2519492214736
 30
0.0
 40
7.601244999999998
  1
外装
 41
0.7
 11
-226.491480595653
 21
386.8531942214736
 31
0.0
100
AcDbText
 73
     3
1001
AcadAnnotative
1000
AnnotativeData
1002
{
1070
     1
1070
     0
1002
}
  0
TEXT
  5
78
102
{ACAD_XDICTIONARY
360
30D
102
}
330
253
100
AcDbEntity
  8
SPEC
 62
     7
100
AcDbText
 10
-96.65956133410491
 20
379.8082645309562
 30
0.0
 40
7.601244999999998
  1
黒
 41
0.7
 11
-96.65956133410491
 21
387.4095095309562
 31
0.0
100
AcDbText
 73
     3
1001
AcadAnnotative
1000
AnnotativeData
1002
{
1070
     1
1070
     0
1002
}
  0
TEXT
  5
79
102
{ACAD_XDICTIONARY
360
309
102
}
330
253
100
AcDbEntity
  8
SPEC
 62
     7
100
AcDbText
 10
-226.7522460638438
 20
364.370820488823
 30
0.0
 40
7.601258680555555
  1
寸法
 41
0.7
 11
-226.7522460638438
 21
371.9720791693786
 31
0.0
100
AcDbText
 73
     3
1001
AcadAnnotative
1000
AnnotativeData
1002
{
1070
     1
1070
     0
1002
}
  0
TEXT
  5
7A
102
{ACAD_XDICTIONARY
360
305
102
}
330
253
100
AcDbEntity
  8
SPEC
 62
     7
100
AcDbText
 10
-96.32766889832945
 20
364.0208501397494
 30
0.0
 40
7.601258680555555
  1
200(W)\U+00D743(H)\U+00D7125(D)mm(突起部含まず）
 41
0.7
 11
-96.32766889832945
 21
371.622108820305
 31
0.0
100
AcDbText
 73
     3
1001
AcadAnnotative
1000
AnnotativeData
1002
{
1070
     1
1070
     0
1002
}
  0
TEXT
  5
7B
102
{ACAD_XDICTIONARY
360
301
102
}
330
253
100
AcDbEntity
  8
SPEC
 62
     7
100
AcDbText
 10
-96.56050157658013
 20
349.2453234265253
 30
0.0
 40
7.601258680555555
  1
約600g
 41
0.7
 11
-96.56050157658013
 21
356.8465821070808
 31
0.0
100
AcDbText
 73
     3
1001
AcadAnnotative
1000
AnnotativeData
1002
{
1070
     1
1070
     0
1002
}
  0
TEXT
  5
7C
102
{ACAD_XDICTIONARY
360
2FD
102
}
330
253
100
AcDbEntity
  8
SPEC
 62
     7
100
AcDbText
 10
-226.7088547807845
 20
349.3899267936149
 30
0.0
 40
7.601258680555555
  1
重量
 41
0.7
 11
-226.7088547807845
 21
356.9911854741704
 31
0.0
100
AcDbText
 73
     3
1001
AcadAnnotative
1000
AnnotativeData
1002
{
1070
     1
1070
     0
1002
}
  0
TEXT
  5
7D
102
{ACAD_XDICTIONARY
360
2F9
102
}
330
253
100
AcDbEntity
  8
SPEC
 62
     7
100
AcDbText
 10
-226.4151863716356
 20
582.2766719992599
 30
0.0
 40
7.601244999999998
  1
音声出力
 41
0.7
 11
-226.4151863716356
 21
589.8779169992599
 31
0.0
100
AcDbText
 73
     3
1001
AcadAnnotative
1000
AnnotativeData
1002
{
1070
     1
1070
     0
1002
}
  0
TEXT
  5
7E
102
{ACAD_XDICTIONARY
360
2F5
102
}
330
253
100
AcDbEntity
  8
SPEC
 62
     7
100
AcDbText
 10
-161.7928760393656
 20
581.6816653178632
 30
0.0
 40
7.601244999999998
  1
チャンネル
 41
0.7
 11
-161.7928760393656
 21
589.2829103178631
 31
0.0
100
AcDbText
 73
     3
1001
AcadAnnotative
1000
AnnotativeData
1002
{
1070
     1
1070
     0
1002
}
  0
TEXT
  5
7F
102
{ACAD_XDICTIONARY
360
2F1
102
}
330
253
100
AcDbEntity
  8
SPEC
 62
     7
100
AcDbText
 10
-97.07662341319723
 20
604.1241209044841
 30
0.0
 40
7.601244999999998
  1
出力数：2
 41
0.7
 11
-97.07662341319723
 21
611.725365904484
 31
0.0
100
AcDbText
 73
     3
1001
AcadAnnotative
1000
AnnotativeData
1002
{
1070
     1
1070
     0
1002
}
  0
TEXT
  5
80
102
{ACAD_XDICTIONARY
360
2ED
102
}
330
253
100
AcDbEntity
  8
SPEC
 62
     7
100
AcDbText
 10
-96.83237962062886
 20
589.1811881501783
 30
0.0
 40
7.601244999999998
  1
形式：標準フォーン(3P)、電子バランス
 41
0.7
 11
-96.83237962062886
 21
596.7824331501782
 31
0.0
100
AcDbText
 73
     3
1001
AcadAnnotative
1000
AnnotativeData
1002
{
1070
     1
1070
     0
1002
}
  0
TEXT
  5
81
102
{ACAD_XDICTIONARY
360
2E9
102
}
330
253
100
AcDbEntity
  8
SPEC
 62
     7
100
AcDbText
 10
-96.83437227356563
 20
574.2872031585793
 30
0.0
 40
7.601244999999998
  1
インピーダンス：800\U+03A9
 41
0.7
 11
-96.83437227356563
 21
581.8884481585793
 31
0.0
100
AcDbText
 73
     3
1001
AcadAnnotative
1000
AnnotativeData
1002
{
1070
     1
1070
     0
1002
}
  0
TEXT
  5
82
102
{ACAD_XDICTIONARY
360
2E5
102
}
330
253
100
AcDbEntity
  8
SPEC
 62
     7
100
AcDbText
 10
-96.29582192726108
 20
559.166850960919
 30
0.0
 40
7.601244999999998
  1
最大出力レベル：+5.1dBu
 41
0.7
 11
-96.29582192726108
 21
566.768095960919
 31
0.0
100
AcDbText
 73
     3
1001
AcadAnnotative
1000
AnnotativeData
1002
{
1070
     1
1070
     0
1002
}
  0
LINE
  5
83
330
253
100
AcDbEntity
  8
SPEC
  6
Continuous
 62
     7
100
AcDbLine
 10
-230.0
 20
390.5954449999999
 30
0.0
 11
360.0
 21
390.5954449999999
 31
0.0
  0
LINE
  5
84
330
253
100
AcDbEntity
  8
SPEC
  6
Continuous
 62
     7
100
AcDbLine
 10
-230.0
 20
375.5954449999999
 30
0.0
 11
360.0
 21
375.5954449999999
 31
0.0
  0
LINE
  5
85
330
253
100
AcDbEntity
  8
SPEC
  6
Continuous
 62
     7
100
AcDbLine
 10
-230.0
 20
360.5954449999999
 30
0.0
 11
360.0
 21
360.5954449999999
 31
0.0
  0
LINE
  5
86
330
253
100
AcDbEntity
  8
SPEC
  6
Continuous
 62
     7
100
AcDbLine
 10
-230.0
 20
345.5954449999999
 30
0.0
 11
360.0
 21
345.5954449999999
 31
0.0
  0
LINE
  5
87
330
253
100
AcDbEntity
  8
SPEC
  6
Continuous
 62
     7
100
AcDbLine
 10
-165.0
 20
555.5954449999999
 30
0.0
 11
-165.0
 21
615.2298030756007
 31
0.0
  0
TEXT
  5
88
102
{ACAD_XDICTIONARY
360
2E1
102
}
330
253
100
AcDbEntity
  8
DIMNSIONS
 62
     7
100
AcDbText
 10
19.99999999999998
 20
-320.326595
 30
0.0
 40
9.773046875
  1
(単位：mm)
 41
0.7
 11
19.99999999999998
 21
-310.553548125
 31
0.0
100
AcDbText
 73
     3
1001
AcadAnnotative
1000
AnnotativeData
1002
{
1070
     1
1070
     0
1002
}
  0
LINE
  5
89
330
253
100
AcDbEntity
  8
DIMNSIONS
  6
Continuous
 62
     7
100
AcDbLine
 10
-95.5
 20
-162.5
 30
0.0
 11
-133.0
 21
-162.5
 31
0.0
  0
LINE
  5
8A
330
253
100
AcDbEntity
  8
DIMNSIONS
  6
Continuous
 62
     7
100
AcDbLine
 10
-95.5
 20
-119.5
 30
0.0
 11
-133.0
 21
-119.5
 31
0.0
  0
LINE
  5
8B
330
253
100
AcDbEntity
  8
DIMNSIONS
  6
Continuous
 62
     7
100
AcDbLine
 10
-125.0
 20
-162.5
 30
0.0
 11
-125.0
 21
-119.5
 31
0.0
  0
LINE
  5
8C
330
253
100
AcDbEntity
  8
DIMNSIONS
  6
Continuous
 62
     7
100
AcDbLine
 10
-125.0
 20
-162.5
 30
0.0
 11
-127.680159180601
 21
-152.497509765625
 31
0.0
  0
LINE
  5
8D
330
253
100
AcDbEntity
  8
DIMNSIONS
  6
Continuous
 62
     7
100
AcDbLine
 10
-125.0
 20
-162.5
 30
0.0
 11
-122.319840819399
 21
-152.497509765625
 31
0.0
  0
LINE
  5
8E
330
253
100
AcDbEntity
  8
DIMNSIONS
  6
Continuous
 62
     7
100
AcDbLine
 10
-125.0
 20
-119.5
 30
0.0
 11
-122.319840819399
 21
-129.502490234375
 31
0.0
  0
LINE
  5
8F
330
253
100
AcDbEntity
  8
DIMNSIONS
  6
Continuous
 62
     7
100
AcDbLine
 10
-125.0
 20
-119.5
 30
0.0
 11
-127.680159180601
 21
-129.502490234375
 31
0.0
  0
TEXT
  5
90
102
{ACAD_XDICTIONARY
360
2DD
102
}
330
253
100
AcDbEntity
  8
DIMNSIONS
 62
     7
100
AcDbText
 10
-128.9755555555556
 20
-148.0555555555555
 30
0.0
 40
10.85894097222222
  1
43
 50
90.0
 41
0.7
 11
-139.8344965277778
 21
-148.0555555555555
 31
0.0
100
AcDbText
 73
     3
1001
AcadAnnotative
1000
AnnotativeData
1002
{
1070
     1
1070
     0
1002
}
  0
LINE
  5
91
330
253
100
AcDbEntity
  8
DIMNSIONS
  6
Continuous
 62
     7
100
AcDbLine
 10
-95.5
 20
100.0
 30
0.0
 11
-133.0
 21
100.0
 31
0.0
  0
LINE
  5
92
330
253
100
AcDbEntity
  8
DIMNSIONS
  6
Continuous
 62
     7
100
AcDbLine
 10
76.09000000000003
 20
112.5
 30
0.0
 11
-133.0
 21
112.5
 31
0.0
  0
LINE
  5
93
330
253
100
AcDbEntity
  8
DIMNSIONS
  6
Continuous
 62
     7
100
AcDbLine
 10
-125.0
 20
112.5
 30
0.0
 11
-125.0
 21
100.0
 31
0.0
  0
LINE
  5
94
330
253
100
AcDbEntity
  8
DIMNSIONS
  6
Continuous
 62
     7
100
AcDbLine
 10
-125.0
 20
100.0
 30
0.0
 11
-125.0
 21
80.0
 31
0.0
  0
LINE
  5
95
330
253
100
AcDbEntity
  8
DIMNSIONS
  6
Continuous
 62
     7
100
AcDbLine
 10
-125.0
 20
100.0
 30
0.0
 11
-122.319840819399
 21
89.99750976562499
 31
0.0
  0
LINE
  5
96
330
253
100
AcDbEntity
  8
DIMNSIONS
  6
Continuous
 62
     7
100
AcDbLine
 10
-125.0
 20
100.0
 30
0.0
 11
-127.680159180601
 21
89.99750976562499
 31
0.0
  0
LINE
  5
97
330
253
100
AcDbEntity
  8
DIMNSIONS
  6
Continuous
 62
     7
100
AcDbLine
 10
-125.0
 20
112.5
 30
0.0
 11
-125.0
 21
153.2222222222222
 31
0.0
  0
LINE
  5
98
330
253
100
AcDbEntity
  8
DIMNSIONS
  6
Continuous
 62
     7
100
AcDbLine
 10
-125.0
 20
112.5
 30
0.0
 11
-127.680159180601
 21
122.502490234375
 31
0.0
  0
LINE
  5
99
330
253
100
AcDbEntity
  8
DIMNSIONS
  6
Continuous
 62
     7
100
AcDbLine
 10
-125.0
 20
112.5
 30
0.0
 11
-122.319840819399
 21
122.502490234375
 31
0.0
  0
TEXT
  5
9A
102
{ACAD_XDICTIONARY
360
2D9
102
}
330
253
100
AcDbEntity
  8
DIMNSIONS
 62
     7
100
AcDbText
 10
-128.9755555555556
 20
125.0
 30
0.0
 40
10.85894097222222
  1
12.5
 50
90.0
 41
0.7
 11
-139.8344965277778
 21
125.0
 31
0.0
100
AcDbText
 73
     3
1001
AcadAnnotative
1000
AnnotativeData
1002
{
1070
     1
1070
     0
1002
}
  0
LINE
  5
9B
330
253
100
AcDbEntity
  8
DIMNSIONS
  6
Continuous
 62
     7
100
AcDbLine
 10
-87.50000000000001
 20
-170.5
 30
0.0
 11
-87.50000000000001
 21
-208.0
 31
0.0
  0
LINE
  5
9C
330
253
100
AcDbEntity
  8
DIMNSIONS
  6
Continuous
 62
     7
100
AcDbLine
 10
112.5
 20
-170.5
 30
0.0
 11
112.5
 21
-208.0
 31
0.0
  0
LINE
  5
9D
330
253
100
AcDbEntity
  8
DIMNSIONS
  6
Continuous
 62
     7
100
AcDbLine
 10
-87.50000000000001
 20
-200.0
 30
0.0
 11
112.5
 21
-200.0
 31
0.0
  0
LINE
  5
9E
330
253
100
AcDbEntity
  8
DIMNSIONS
  6
Continuous
 62
     7
100
AcDbLine
 10
-87.50000000000001
 20
-200.0
 30
0.0
 11
-77.49750976562502
 21
-197.319840819399
 31
0.0
  0
LINE
  5
9F
330
253
100
AcDbEntity
  8
DIMNSIONS
  6
Continuous
 62
     7
100
AcDbLine
 10
-87.50000000000001
 20
-200.0
 30
0.0
 11
-77.49750976562502
 21
-202.680159180601
 31
0.0
  0
LINE
  5
A0
330
253
100
AcDbEntity
  8
DIMNSIONS
  6
Continuous
 62
     7
100
AcDbLine
 10
112.5
 20
-200.0
 30
0.0
 11
102.497509765625
 21
-202.680159180601
 31
0.0
  0
LINE
  5
A1
330
253
100
AcDbEntity
  8
DIMNSIONS
  6
Continuous
 62
     7
100
AcDbLine
 10
112.5
 20
-200.0
 30
0.0
 11
102.497509765625
 21
-197.319840819399
 31
0.0
  0
TEXT
  5
A2
102
{ACAD_XDICTIONARY
360
2D5
102
}
330
253
100
AcDbEntity
  8
DIMNSIONS
 62
     7
100
AcDbText
 10
1.916666666666656
 20
-196.0244444444445
 30
0.0
 40
10.85894097222222
  1
200
 41
0.7
 11
1.916666666666656
 21
-185.1655034722223
 31
0.0
100
AcDbText
 73
     3
1001
AcadAnnotative
1000
AnnotativeData
1002
{
1070
     1
1070
     0
1002
}
  0
LINE
  5
A3
330
253
100
AcDbEntity
  8
DIMNSIONS
  6
Continuous
 62
     7
100
AcDbLine
 10
-86.73473443830138
 20
-164.5
 30
0.0
 11
-133.0
 21
-164.5
 31
0.0
  0
LINE
  5
A4
330
253
100
AcDbEntity
  8
DIMNSIONS
  6
Continuous
 62
     7
100
AcDbLine
 10
-95.5
 20
-162.5
 30
0.0
 11
-133.0
 21
-162.5
 31
0.0
  0
LINE
  5
A5
330
253
100
AcDbEntity
  8
DIMNSIONS
  6
Continuous
 62
     7
100
AcDbLine
 10
-125.0
 20
-162.5
 30
0.0
 11
-125.0
 21
-164.5
 31
0.0
  0
LINE
  5
A6
330
253
100
AcDbEntity
  8
DIMNSIONS
  6
Continuous
 62
     7
100
AcDbLine
 10
-125.0
 20
-164.5
 30
0.0
 11
-125.0
 21
-184.4555555555556
 31
0.0
  0
LINE
  5
A7
330
253
100
AcDbEntity
  8
DIMNSIONS
  6
Continuous
 62
     7
100
AcDbLine
 10
-125.0
 20
-164.5
 30
0.0
 11
-122.319840819399
 21
-174.502490234375
 31
0.0
  0
LINE
  5
A8
330
253
100
AcDbEntity
  8
DIMNSIONS
  6
Continuous
 62
     7
100
AcDbLine
 10
-125.0
 20
-164.5
 30
0.0
 11
-127.680159180601
 21
-174.502490234375
 31
0.0
  0
LINE
  5
A9
330
253
100
AcDbEntity
  8
DIMNSIONS
  6
Continuous
 62
     7
100
AcDbLine
 10
-125.0
 20
-162.5
 30
0.0
 11
-125.0
 21
-142.5
 31
0.0
  0
LINE
  5
AA
330
253
100
AcDbEntity
  8
DIMNSIONS
  6
Continuous
 62
     7
100
AcDbLine
 10
-125.0
 20
-162.5
 30
0.0
 11
-127.680159180601
 21
-152.497509765625
 31
0.0
  0
LINE
  5
AB
330
253
100
AcDbEntity
  8
DIMNSIONS
  6
Continuous
 62
     7
100
AcDbLine
 10
-125.0
 20
-162.5
 30
0.0
 11
-122.319840819399
 21
-152.497509765625
 31
0.0
  0
TEXT
  5
AC
102
{ACAD_XDICTIONARY
360
2D1
102
}
330
253
100
AcDbEntity
  8
DIMNSIONS
 62
     7
100
AcDbText
 10
-128.9755555555556
 20
-184.4555555555556
 30
0.0
 40
10.85894097222222
  1
2
 50
90.0
 41
0.7
 11
-139.8344965277778
 21
-184.4555555555556
 31
0.0
100
AcDbText
 73
     3
1001
AcadAnnotative
1000
AnnotativeData
1002
{
1070
     1
1070
     0
1002
}
  0
LINE
  5
AD
330
253
100
AcDbEntity
  8
DIMNSIONS
  6
Continuous
 62
     7
100
AcDbLine
 10
34.46520204057293
 20
-37.51679509831745
 30
0.0
 11
-133.0
 21
-37.51679509831745
 31
0.0
  0
LINE
  5
AE
330
253
100
AcDbEntity
  8
DIMNSIONS
  6
Continuous
 62
     7
100
AcDbLine
 10
-95.5
 20
-25.0
 30
0.0
 11
-133.0
 21
-25.0
 31
0.0
  0
LINE
  5
AF
330
253
100
AcDbEntity
  8
DIMNSIONS
  6
Continuous
 62
     7
100
AcDbLine
 10
-125.0
 20
-25.0
 30
0.0
 11
-125.0
 21
-37.51679509831745
 31
0.0
  0
LINE
  5
B0
330
253
100
AcDbEntity
  8
DIMNSIONS
  6
Continuous
 62
     7
100
AcDbLine
 10
-125.0
 20
-37.51679509831745
 30
0.0
 11
-125.0
 21
-78.22222222222222
 31
0.0
  0
LINE
  5
B1
330
253
100
AcDbEntity
  8
DIMNSIONS
  6
Continuous
 62
     7
100
AcDbLine
 10
-125.0
 20
-37.51679509831745
 30
0.0
 11
-122.319840819399
 21
-47.51928533269246
 31
0.0
  0
LINE
  5
B2
330
253
100
AcDbEntity
  8
DIMNSIONS
  6
Continuous
 62
     7
100
AcDbLine
 10
-125.0
 20
-37.51679509831745
 30
0.0
 11
-127.680159180601
 21
-47.51928533269246
 31
0.0
  0
LINE
  5
B3
330
253
100
AcDbEntity
  8
DIMNSIONS
  6
Continuous
 62
     7
100
AcDbLine
 10
-125.0
 20
-25.0
 30
0.0
 11
-125.0
 21
-5.0
 31
0.0
  0
LINE
  5
B4
330
253
100
AcDbEntity
  8
DIMNSIONS
  6
Continuous
 62
     7
100
AcDbLine
 10
-125.0
 20
-25.0
 30
0.0
 11
-127.680159180601
 21
-14.99750976562501
 31
0.0
  0
LINE
  5
B5
330
253
100
AcDbEntity
  8
DIMNSIONS
  6
Continuous
 62
     7
100
AcDbLine
 10
-125.0
 20
-25.0
 30
0.0
 11
-122.319840819399
 21
-14.99750976562501
 31
0.0
  0
TEXT
  5
B6
102
{ACAD_XDICTIONARY
360
2CD
102
}
330
253
100
AcDbEntity
  8
DIMNSIONS
 62
     7
100
AcDbText
 10
-128.9755555555556
 20
-78.2222222222222
 30
0.0
 40
10.85894097222222
  1
12.5
 50
90.0
 41
0.7
 11
-139.8344965277778
 21
-78.2222222222222
 31
0.0
100
AcDbText
 73
     3
1001
AcadAnnotative
1000
AnnotativeData
1002
{
1070
     1
1070
     0
1002
}
  0
LINE
  5
B7
330
253
100
AcDbEntity
  8
DIMNSIONS
  6
Continuous
 62
     7
100
AcDbLine
 10
-95.5
 20
-25.0
 30
0.0
 11
-133.0
 21
-25.0
 31
0.0
  0
LINE
  5
B8
330
253
100
AcDbEntity
  8
DIMNSIONS
  6
Continuous
 62
     7
100
AcDbLine
 10
-95.5
 20
100.0
 30
0.0
 11
-133.0
 21
100.0
 31
0.0
  0
LINE
  5
B9
330
253
100
AcDbEntity
  8
DIMNSIONS
  6
Continuous
 62
     7
100
AcDbLine
 10
-125.0
 20
-25.0
 30
0.0
 11
-125.0
 21
100.0
 31
0.0
  0
LINE
  5
BA
330
253
100
AcDbEntity
  8
DIMNSIONS
  6
Continuous
 62
     7
100
AcDbLine
 10
-125.0
 20
-25.0
 30
0.0
 11
-127.680159180601
 21
-14.99750976562501
 31
0.0
  0
LINE
  5
BB
330
253
100
AcDbEntity
  8
DIMNSIONS
  6
Continuous
 62
     7
100
AcDbLine
 10
-125.0
 20
-25.0
 30
0.0
 11
-122.319840819399
 21
-14.99750976562501
 31
0.0
  0
LINE
  5
BC
330
253
100
AcDbEntity
  8
DIMNSIONS
  6
Continuous
 62
     7
100
AcDbLine
 10
-125.0
 20
100.0
 30
0.0
 11
-122.319840819399
 21
89.99750976562499
 31
0.0
  0
LINE
  5
BD
330
253
100
AcDbEntity
  8
DIMNSIONS
  6
Continuous
 62
     7
100
AcDbLine
 10
-125.0
 20
100.0
 30
0.0
 11
-127.680159180601
 21
89.99750976562499
 31
0.0
  0
TEXT
  5
BE
102
{ACAD_XDICTIONARY
360
2C9
102
}
330
253
100
AcDbEntity
  8
DIMNSIONS
 62
     7
100
AcDbText
 10
-128.9755555555556
 20
26.91666666666667
 30
0.0
 40
10.85894097222222
  1
125
 50
90.0
 41
0.7
 11
-139.8344965277778
 21
26.91666666666667
 31
0.0
100
AcDbText
 73
     3
1001
AcadAnnotative
1000
AnnotativeData
1002
{
1070
     1
1070
     0
1002
}
  0
TEXT
  5
BF
102
{ACAD_XDICTIONARY
360
2C5
102
}
330
253
100
AcDbEntity
  8
DATA
 62
     7
100
AcDbText
 10
300.0
 20
-324.8809949999999
 30
0.0
 40
9.773046875
  1
DSR 70 DUAL
 41
0.7
 11
300.0
 21
-315.107948125
 31
0.0
100
AcDbText
 73
     3
1001
AcadAnnotative
1000
AnnotativeData
1002
{
1070
     1
1070
     0
1002
}
  0
TEXT
  5
C0
102
{ACAD_XDICTIONARY
360
2C1
102
}
330
253
100
AcDbEntity
  8
DATA
 62
     7
100
AcDbText
 10
300.0
 20
-293.8473396578272
 30
0.0
 40
9.773046875
  1
AKG
 41
0.7
 11
300.0
 21
-284.0742927828272
 31
0.0
100
AcDbText
 73
     3
1001
AcadAnnotative
1000
AnnotativeData
1002
{
1070
     1
1070
     0
1002
}
  0
TEXT
  5
C1
102
{ACAD_XDICTIONARY
360
2BD
102
}
330
253
100
AcDbEntity
  8
DATA
 62
     7
100
AcDbText
 10
291.1588906547351
 20
-308.3898305860401
 30
0.0
 40
6.515374843749999
  1
ワイヤレス受信機
 41
0.7
 11
291.1588906547351
 21
-301.8744557422901
 31
0.0
100
AcDbText
 73
     3
1001
AcadAnnotative
1000
AnnotativeData
1002
{
1070
     1
1070
     0
1002
}
  0
TEXT
  5
C2
102
{ACAD_XDICTIONARY
360
2B9
102
}
330
253
100
AcDbEntity
  8
DATA
 62
     7
100
AcDbText
 10
-220.0
 20
-352.4525550000001
 30
0.0
 40
6.515364583333332
  1
仕様および外観は予告なく変更されることがありますので、ご了承ください。
 41
0.7
 11
-220.0
 21
-345.9371904166667
 31
0.0
100
AcDbText
 73
     3
1001
AcadAnnotative
1000
AnnotativeData
1002
{
1070
     1
1070
     0
1002
}
  0
LINE
  5
C3
330
253
100
AcDbEntity
  8
DATA
  6
Continuous
 62
     7
100
AcDbLine
 10
-87.50000000000001
 20
-162.5
 30
0.0
 11
-87.50000000000001
 21
-121.0
 31
0.0
  0
LINE
  5
C4
330
253
100
AcDbEntity
  8
DATA
  6
Continuous
 62
     7
100
AcDbLine
 10
112.5
 20
-162.5
 30
0.0
 11
-87.50000000000001
 21
-162.5
 31
0.0
  0
LINE
  5
C5
330
253
100
AcDbEntity
  8
DATA
  6
Continuous
 62
     7
100
AcDbLine
 10
-86.00000000000001
 20
-119.5
 30
0.0
 11
20.53206787045398
 21
-119.5
 31
0.0
  0
LINE
  5
C6
330
253
100
AcDbEntity
  8
DATA
  6
Continuous
 62
     7
100
AcDbLine
 10
30.02805243991149
 20
-119.5
 30
0.0
 11
98.95384911534916
 21
-119.5
 31
0.0
  0
LINE
  5
C7
330
253
100
AcDbEntity
  8
DATA
  6
Continuous
 62
     7
100
AcDbLine
 10
108.4498336848066
 20
-119.5
 30
0.0
 11
111.0
 21
-119.5
 31
0.0
  0
LINE
  5
C8
330
253
100
AcDbEntity
  8
DATA
  6
Continuous
 62
     7
100
AcDbLine
 10
108.4498336848066
 20
-119.5
 30
0.0
 11
111.0
 21
-119.5
 31
0.0
  0
LINE
  5
C9
330
253
100
AcDbEntity
  8
DATA
  6
Continuous
 62
     7
100
AcDbLine
 10
-87.50000000000001
 20
-25.0
 30
0.0
 11
-87.50000000000001
 21
100.0
 31
0.0
  0
LINE
  5
CA
330
253
100
AcDbEntity
  8
DATA
  6
Continuous
 62
     7
100
AcDbLine
 10
112.5
 20
-25.0
 30
0.0
 11
-87.50000000000001
 21
-25.0
 31
0.0
  0
LINE
  5
CB
330
253
100
AcDbEntity
  8
DATA
  6
Continuous
 62
     7
100
AcDbLine
 10
-78.73473443830137
 20
-164.5
 30
0.0
 11
-68.93473443830142
 21
-164.5
 31
0.0
  0
LINE
  5
CC
330
253
100
AcDbEntity
  8
DATA
  6
Continuous
 62
     7
100
AcDbLine
 10
-78.73473443830137
 20
-164.5
 30
0.0
 11
-79.5018577259726
 21
-162.5
 31
0.0
  0
LINE
  5
CD
330
253
100
AcDbEntity
  8
DATA
  6
Continuous
 62
     7
100
AcDbLine
 10
-68.93473443830142
 20
-164.5
 30
0.0
 11
-68.16761115063018
 21
-162.5
 31
0.0
  0
LINE
  5
CE
330
253
100
AcDbEntity
  8
DATA
  6
Continuous
 62
     7
100
AcDbLine
 10
-77.00000000000001
 20
-152.4676970880306
 30
0.0
 11
-77.00000000000001
 21
-142.5676970880305
 31
0.0
  0
LINE
  5
CF
330
253
100
AcDbEntity
  8
DATA
  6
Continuous
 62
     7
100
AcDbLine
 10
-61.00000000000002
 20
-152.4676970880306
 30
0.0
 11
-77.00000000000001
 21
-152.4676970880306
 31
0.0
  0
LINE
  5
D0
330
253
100
AcDbEntity
  8
DATA
  6
Continuous
 62
     7
100
AcDbLine
 10
-61.00000000000002
 20
-142.5676970880305
 30
0.0
 11
-61.00000000000002
 21
-152.4676970880306
 31
0.0
  0
LINE
  5
D1
330
253
100
AcDbEntity
  8
DATA
  6
Continuous
 62
     7
100
AcDbLine
 10
-77.00000000000001
 20
-142.5676970880305
 30
0.0
 11
-61.00000000000002
 21
-142.5676970880305
 31
0.0
  0
LINE
  5
D2
330
253
100
AcDbEntity
  8
DATA
  6
Continuous
 62
     7
100
AcDbLine
 10
-79.00000000000002
 20
-153.0176970880305
 30
0.0
 11
-79.00000000000002
 21
-142.0176970880305
 31
0.0
  0
ARC
  5
D3
330
253
100
AcDbEntity
  8
DATA
  6
Continuous
 62
     7
100
AcDbCircle
 10
-77.50000000000001
 20
-153.0176970880305
 30
0.0
 40
1.5
100
AcDbArc
 50
180.0
 51
270.0
  0
LINE
  5
D4
330
253
100
AcDbEntity
  8
DATA
  6
Continuous
 62
     7
100
AcDbLine
 10
-60.50000000000002
 20
-154.5176970880305
 30
0.0
 11
-77.50000000000001
 21
-154.5176970880305
 31
0.0
  0
ARC
  5
D5
330
253
100
AcDbEntity
  8
DATA
  6
Continuous
 62
     7
100
AcDbCircle
 10
-60.50000000000002
 20
-153.0176970880305
 30
0.0
 40
1.5
100
AcDbArc
 50
270.0
 51
0.0
  0
LINE
  5
D6
330
253
100
AcDbEntity
  8
DATA
  6
Continuous
 62
     7
100
AcDbLine
 10
-59.00000000000002
 20
-142.0176970880305
 30
0.0
 11
-59.00000000000002
 21
-153.0176970880305
 31
0.0
  0
ARC
  5
D7
330
253
100
AcDbEntity
  8
DATA
  6
Continuous
 62
     7
100
AcDbCircle
 10
-60.50000000000002
 20
-142.0176970880305
 30
0.0
 40
1.5
100
AcDbArc
 50
0.0
 51
90.0
  0
LINE
  5
D8
330
253
100
AcDbEntity
  8
DATA
  6
Continuous
 62
     7
100
AcDbLine
 10
-77.50000000000001
 20
-140.5176970880305
 30
0.0
 11
-60.50000000000002
 21
-140.5176970880305
 31
0.0
  0
ARC
  5
D9
330
253
100
AcDbEntity
  8
DATA
  6
Continuous
 62
     7
100
AcDbCircle
 10
-77.50000000000001
 20
-142.0176970880305
 30
0.0
 40
1.5
100
AcDbArc
 50
90.0
 51
180.0
  0
LINE
  5
DA
330
253
100
AcDbEntity
  8
DATA
  6
Continuous
 62
     7
100
AcDbLine
 10
-17.00000000000002
 20
-156.5
 30
0.0
 11
-17.00000000000002
 21
-124.5
 31
0.0
  0
CIRCLE
  5
DB
330
253
100
AcDbEntity
  8
DATA
  6
Continuous
 62
     7
100
AcDbCircle
 10
-45.50000000000002
 20
-147.5
 30
0.0
 40
7.0
  0
CIRCLE
  5
DC
330
253
100
AcDbEntity
  8
DATA
  6
Continuous
 62
     7
100
AcDbCircle
 10
-27.50000000000001
 20
-147.5
 30
0.0
 40
7.0
  0
CIRCLE
  5
DD
330
253
100
AcDbEntity
  8
DATA
  6
Continuous
 62
     7
100
AcDbCircle
 10
-27.50000000000001
 20
-147.5
 30
0.0
 40
4.900000000000005
  0
CIRCLE
  5
DE
330
253
100
AcDbEntity
  8
DATA
  6
Continuous
 62
     7
100
AcDbCircle
 10
-45.50000000000002
 20
-147.5
 30
0.0
 40
4.25
  0
CIRCLE
  5
DF
330
253
100
AcDbEntity
  8
DATA
  6
Continuous
 62
     7
100
AcDbCircle
 10
-45.50000000000002
 20
-147.5
 30
0.0
 40
3.949999999999988
  0
CIRCLE
  5
E0
330
253
100
AcDbEntity
  8
DATA
  6
Continuous
 62
     7
100
AcDbCircle
 10
-48.50000000000002
 20
-127.5
 30
0.0
 40
2.0
  0
CIRCLE
  5
E1
330
253
100
AcDbEntity
  8
DATA
  6
Continuous
 62
     7
100
AcDbCircle
 10
-36.50000000000002
 20
-127.5
 30
0.0
 40
2.0
  0
CIRCLE
  5
E2
330
253
100
AcDbEntity
  8
DATA
  6
Continuous
 62
     7
100
AcDbCircle
 10
-24.50000000000001
 20
-127.5
 30
0.0
 40
2.0
  0
TEXT
  5
E3
102
{ACAD_XDICTIONARY
360
2B5
102
}
330
253
100
AcDbEntity
  8
DATA
 62
     7
100
AcDbText
 10
-51.01924581044854
 20
-133.384467826849
 30
0.0
 40
2.778125
  1
BAT
 41
0.7
 11
-51.01924581044854
 21
-130.606342826849
 31
0.0
100
AcDbText
 73
     3
1001
AcadAnnotative
1000
AnnotativeData
1002
{
1070
     1
1070
     0
1002
}
  0
TEXT
  5
E4
102
{ACAD_XDICTIONARY
360
2B1
102
}
330
253
100
AcDbEntity
  8
DATA
 62
     7
100
AcDbText
 10
-39.66701725540846
 20
-133.384467826849
 30
0.0
 40
2.44326171875
  1
LINK
 41
0.7
 11
-39.66701725540846
 21
-130.941206108099
 31
0.0
100
AcDbText
 73
     3
1001
AcadAnnotative
1000
AnnotativeData
1002
{
1070
     1
1070
     0
1002
}
  0
TEXT
  5
E5
102
{ACAD_XDICTIONARY
360
2AD
102
}
330
253
100
AcDbEntity
  8
DATA
 62
     7
100
AcDbText
 10
-27.38940092185421
 20
-133.384467826849
 30
0.0
 40
2.44326171875
  1
CLIP
 41
0.7
 11
-27.38940092185421
 21
-130.941206108099
 31
0.0
100
AcDbText
 73
     3
1001
AcadAnnotative
1000
AnnotativeData
1002
{
1070
     1
1070
     0
1002
}
  0
TEXT
  5
E6
102
{ACAD_XDICTIONARY
360
2A9
102
}
330
253
100
AcDbEntity
  8
DATA
 62
     7
100
AcDbText
 10
-30.62825814665377
 20
-159.3328730233148
 30
0.0
 40
2.44326171875
  1
CH 1
 41
0.7
 11
-30.62825814665377
 21
-156.8896113045648
 31
0.0
100
AcDbText
 73
     3
1001
AcadAnnotative
1000
AnnotativeData
1002
{
1070
     1
1070
     0
1002
}
  0
TEXT
  5
E7
102
{ACAD_XDICTIONARY
360
2A5
102
}
330
253
100
AcDbEntity
  8
DATA
 62
     7
100
AcDbText
 10
-47.77755433142625
 20
-159.3328730233148
 30
0.0
 40
2.44326171875
  1
VOL
 41
0.7
 11
-47.77755433142625
 21
-156.8896113045648
 31
0.0
100
AcDbText
 73
     3
1001
AcadAnnotative
1000
AnnotativeData
1002
{
1070
     1
1070
     0
1002
}
  0
LINE
  5
E8
330
253
100
AcDbEntity
  8
DATA
  6
Continuous
 62
     7
100
AcDbLine
 10
-45.50000000000002
 20
-140.5
 30
0.0
 11
-45.50000000000002
 21
-137.6
 31
0.0
  0
LINE
  5
E9
330
253
100
AcDbEntity
  8
DATA
  6
Continuous
 62
     7
100
AcDbLine
 10
-52.50000000000002
 20
-147.5
 30
0.0
 11
-55.40000000000002
 21
-147.5
 31
0.0
  0
LINE
  5
EA
330
253
100
AcDbEntity
  8
DATA
  6
Continuous
 62
     7
100
AcDbLine
 10
-38.50000000000001
 20
-147.5
 30
0.0
 11
-35.60000000000001
 21
-147.5
 31
0.0
  0
LINE
  5
EB
330
253
100
AcDbEntity
  8
DATA
  6
Continuous
 62
     7
100
AcDbLine
 10
-39.43782217350993
 20
-144.0000000000005
 30
0.0
 11
-36.92634850253451
 21
-142.5500000000002
 31
0.0
  0
LINE
  5
EC
330
253
100
AcDbEntity
  8
DATA
  6
Continuous
 62
     7
100
AcDbLine
 10
-42.00000000000177
 20
-141.437822173512
 30
0.0
 11
-40.55000000000013
 21
-138.9263485025342
 31
0.0
  0
LINE
  5
ED
330
253
100
AcDbEntity
  8
DATA
  6
Continuous
 62
     7
100
AcDbLine
 10
-48.9999999999982
 20
-141.4378221735121
 30
0.0
 11
-50.4499999999999
 21
-138.9263485025342
 31
0.0
  0
LINE
  5
EE
330
253
100
AcDbEntity
  8
DATA
  6
Continuous
 62
     7
100
AcDbLine
 10
-51.56217782649186
 20
-143.9999999999995
 30
0.0
 11
-54.07365149746628
 21
-142.5499999999997
 31
0.0
  0
LINE
  5
EF
330
253
100
AcDbEntity
  8
DATA
  6
Continuous
 62
     7
100
AcDbLine
 10
-51.5621778264901
 20
-150.9999999999994
 30
0.0
 11
-54.07365149746586
 21
-152.4499999999999
 31
0.0
  0
LINE
  5
F0
330
253
100
AcDbEntity
  8
DATA
  6
Continuous
 62
     7
100
AcDbLine
 10
-39.43782217350936
 20
-150.9999999999997
 30
0.0
 11
-36.92634850253414
 21
-152.45
 31
0.0
  0
LINE
  5
F1
330
253
100
AcDbEntity
  8
DATA
  6
Continuous
 62
     7
100
AcDbLine
 10
-41.75877252876882
 20
-158.0
 30
0.0
 11
-40.11877252876884
 21
-158.0
 31
0.0
  0
LINE
  5
F2
330
253
100
AcDbEntity
  8
DATA
  6
Continuous
 62
     7
100
AcDbLine
 10
-40.93877252876884
 20
-158.82
 30
0.0
 11
-40.93877252876884
 21
-157.18
 31
0.0
  0
LINE
  5
F3
330
253
100
AcDbEntity
  8
DATA
  6
Continuous
 62
     7
100
AcDbLine
 10
-48.84122747123117
 20
-158.0
 30
0.0
 11
-50.48122747123114
 21
-158.0
 31
0.0
  0
LINE
  5
F4
330
253
100
AcDbEntity
  8
DATA
  6
Continuous
 62
     7
100
AcDbLine
 10
22.99999999999998
 20
-156.5
 30
0.0
 11
22.99999999999998
 21
-126.5099343548667
 31
0.0
  0
CIRCLE
  5
F5
330
253
100
AcDbEntity
  8
DATA
  6
Continuous
 62
     7
100
AcDbCircle
 10
-5.500000000000014
 20
-147.5
 30
0.0
 40
7.0
  0
CIRCLE
  5
F6
330
253
100
AcDbEntity
  8
DATA
  6
Continuous
 62
     7
100
AcDbCircle
 10
12.49999999999998
 20
-147.5
 30
0.0
 40
7.0
  0
CIRCLE
  5
F7
330
253
100
AcDbEntity
  8
DATA
  6
Continuous
 62
     7
100
AcDbCircle
 10
12.49999999999998
 20
-147.5
 30
0.0
 40
4.900000000000005
  0
CIRCLE
  5
F8
330
253
100
AcDbEntity
  8
DATA
  6
Continuous
 62
     7
100
AcDbCircle
 10
-5.500000000000014
 20
-147.5
 30
0.0
 40
4.25
  0
CIRCLE
  5
F9
330
253
100
AcDbEntity
  8
DATA
  6
Continuous
 62
     7
100
AcDbCircle
 10
-5.500000000000014
 20
-147.5
 30
0.0
 40
3.949999999999988
  0
CIRCLE
  5
FA
330
253
100
AcDbEntity
  8
DATA
  6
Continuous
 62
     7
100
AcDbCircle
 10
-8.500000000000014
 20
-127.5
 30
0.0
 40
2.0
  0
CIRCLE
  5
FB
330
253
100
AcDbEntity
  8
DATA
  6
Continuous
 62
     7
100
AcDbCircle
 10
3.499999999999985
 20
-127.5
 30
0.0
 40
2.0
  0
CIRCLE
  5
FC
330
253
100
AcDbEntity
  8
DATA
  6
Continuous
 62
     7
100
AcDbCircle
 10
15.49999999999998
 20
-127.5
 30
0.0
 40
2.0
  0
TEXT
  5
FD
102
{ACAD_XDICTIONARY
360
2A1
102
}
330
253
100
AcDbEntity
  8
DATA
 62
     7
100
AcDbText
 10
-11.01924581044853
 20
-133.384467826849
 30
0.0
 40
2.778125
  1
BAT
 41
0.7
 11
-11.01924581044853
 21
-130.606342826849
 31
0.0
100
AcDbText
 73
     3
1001
AcadAnnotative
1000
AnnotativeData
1002
{
1070
     1
1070
     0
1002
}
  0
TEXT
  5
FE
102
{ACAD_XDICTIONARY
360
29D
102
}
330
253
100
AcDbEntity
  8
DATA
 62
     7
100
AcDbText
 10
0.3329827445915468
 20
-133.384467826849
 30
0.0
 40
2.44326171875
  1
LINK
 41
0.7
 11
0.332982744591547
 21
-130.941206108099
 31
0.0
100
AcDbText
 73
     3
1001
AcadAnnotative
1000
AnnotativeData
1002
{
1070
     1
1070
     0
1002
}
  0
TEXT
  5
FF
102
{ACAD_XDICTIONARY
360
299
102
}
330
253
100
AcDbEntity
  8
DATA
 62
     7
100
AcDbText
 10
12.61059907814579
 20
-133.384467826849
 30
0.0
 40
2.44326171875
  1
CLIP
 41
0.7
 11
12.61059907814579
 21
-130.941206108099
 31
0.0
100
AcDbText
 73
     3
1001
AcadAnnotative
1000
AnnotativeData
1002
{
1070
     1
1070
     0
1002
}
  0
TEXT
  5
100
102
{ACAD_XDICTIONARY
360
295
102
}
330
253
100
AcDbEntity
  8
DATA
 62
     7
100
AcDbText
 10
9.371741853346222
 20
-159.3328730233148
 30
0.0
 40
2.44326171875
  1
CH 2
 41
0.7
 11
9.371741853346222
 21
-156.8896113045648
 31
0.0
100
AcDbText
 73
     3
1001
AcadAnnotative
1000
AnnotativeData
1002
{
1070
     1
1070
     0
1002
}
  0
TEXT
  5
101
102
{ACAD_XDICTIONARY
360
291
102
}
330
253
100
AcDbEntity
  8
DATA
 62
     7
100
AcDbText
 10
-7.777554331426259
 20
-159.3328730233148
 30
0.0
 40
2.44326171875
  1
VOL
 41
0.7
 11
-7.777554331426259
 21
-156.8896113045648
 31
0.0
100
AcDbText
 73
     3
1001
AcadAnnotative
1000
AnnotativeData
1002
{
1070
     1
1070
     0
1002
}
  0
LINE
  5
102
330
253
100
AcDbEntity
  8
DATA
  6
Continuous
 62
     7
100
AcDbLine
 10
-5.500000000000014
 20
-140.5
 30
0.0
 11
-5.500000000000014
 21
-137.6
 31
0.0
  0
LINE
  5
103
330
253
100
AcDbEntity
  8
DATA
  6
Continuous
 62
     7
100
AcDbLine
 10
-12.50000000000001
 20
-147.5
 30
0.0
 11
-15.40000000000002
 21
-147.5
 31
0.0
  0
LINE
  5
104
330
253
100
AcDbEntity
  8
DATA
  6
Continuous
 62
     7
100
AcDbLine
 10
1.499999999999985
 20
-147.5
 30
0.0
 11
4.399999999999992
 21
-147.5
 31
0.0
  0
LINE
  5
105
330
253
100
AcDbEntity
  8
DATA
  6
Continuous
 62
     7
100
AcDbLine
 10
0.5621778264900712
 20
-144.0000000000005
 30
0.0
 11
3.07365149746549
 21
-142.5500000000002
 31
0.0
  0
LINE
  5
106
330
253
100
AcDbEntity
  8
DATA
  6
Continuous
 62
     7
100
AcDbLine
 10
-2.000000000001776
 20
-141.437822173512
 30
0.0
 11
-0.5500000000001393
 21
-138.9263485025342
 31
0.0
  0
LINE
  5
107
330
253
100
AcDbEntity
  8
DATA
  6
Continuous
 62
     7
100
AcDbLine
 10
-8.999999999998195
 20
-141.4378221735121
 30
0.0
 11
-10.44999999999989
 21
-138.9263485025342
 31
0.0
  0
LINE
  5
108
330
253
100
AcDbEntity
  8
DATA
  6
Continuous
 62
     7
100
AcDbLine
 10
-11.56217782649186
 20
-143.9999999999995
 30
0.0
 11
-14.07365149746629
 21
-142.5499999999997
 31
0.0
  0
LINE
  5
109
330
253
100
AcDbEntity
  8
DATA
  6
Continuous
 62
     7
100
AcDbLine
 10
-11.5621778264901
 20
-150.9999999999994
 30
0.0
 11
-14.07365149746586
 21
-152.4499999999999
 31
0.0
  0
LINE
  5
10A
330
253
100
AcDbEntity
  8
DATA
  6
Continuous
 62
     7
100
AcDbLine
 10
0.5621778264906397
 20
-150.9999999999997
 30
0.0
 11
3.07365149746586
 21
-152.45
 31
0.0
  0
LINE
  5
10B
330
253
100
AcDbEntity
  8
DATA
  6
Continuous
 62
     7
100
AcDbLine
 10
-1.75877252876883
 20
-158.0
 30
0.0
 11
-0.1187725287688437
 21
-158.0
 31
0.0
  0
LINE
  5
10C
330
253
100
AcDbEntity
  8
DATA
  6
Continuous
 62
     7
100
AcDbLine
 10
-0.9387725287688367
 20
-158.82
 30
0.0
 11
-0.9387725287688367
 21
-157.18
 31
0.0
  0
LINE
  5
10D
330
253
100
AcDbEntity
  8
DATA
  6
Continuous
 62
     7
100
AcDbLine
 10
-8.841227471231164
 20
-158.0
 30
0.0
 11
-10.48122747123115
 21
-158.0
 31
0.0
  0
ARC
  5
10E
330
253
100
AcDbEntity
  8
DATA
  6
Continuous
 62
     7
100
AcDbCircle
 10
93.52891619030158
 20
-147.5
 30
0.0
 40
7.500000000000046
100
AcDbArc
 50
108.9473138136805
 51
209.84315353943
  0
ARC
  5
10F
330
253
100
AcDbEntity
  8
DATA
  6
Continuous
 62
     7
100
AcDbCircle
 10
93.52891619030158
 20
-147.5
 30
0.0
 40
7.50000000000007
100
AcDbArc
 50
228.9605302186819
 51
271.0394697813182
  0
ARC
  5
110
330
253
100
AcDbEntity
  8
DATA
  6
Continuous
 62
     7
100
AcDbCircle
 10
93.52891619030158
 20
-147.5
 30
0.0
 40
7.500000000000046
100
AcDbArc
 50
290.1568464605682
 51
31.05268618632027
  0
ARC
  5
111
330
253
100
AcDbEntity
  8
DATA
  6
Continuous
 62
     7
100
AcDbCircle
 10
35.45298536495923
 20
-147.5
 30
0.0
 40
7.499999999999979
100
AcDbArc
 50
148.9473138136788
 51
249.84315353943
  0
ARC
  5
112
330
253
100
AcDbEntity
  8
DATA
  6
Continuous
 62
     7
100
AcDbCircle
 10
35.45298536495923
 20
-147.5
 30
0.0
 40
7.500000000000033
100
AcDbArc
 50
268.9605302186827
 51
311.0394697813182
  0
ARC
  5
113
330
253
100
AcDbEntity
  8
DATA
  6
Continuous
 62
     7
100
AcDbCircle
 10
35.45298536495923
 20
-147.5
 30
0.0
 40
7.499999999999987
100
AcDbArc
 50
330.1568464605702
 51
71.05268618632021
  0
LINE
  5
114
330
253
100
AcDbEntity
  8
DATA
  6
Continuous
 62
     7
100
AcDbLine
 10
86.57726597621026
 20
-152.4190506503719
 30
0.0
 11
116.9732199508284
 21
-71.57234706442207
 31
0.0
  0
LINE
  5
115
330
253
100
AcDbEntity
  8
DATA
  6
Continuous
 62
     7
100
AcDbLine
 10
95.69228439783357
 20
-155.7366460406309
 30
0.0
 11
124.3748921096775
 21
-74.26633541932139
 31
0.0
  0
LINE
  5
116
330
253
100
AcDbEntity
  8
DATA
  6
Continuous
 62
     7
100
AcDbLine
 10
95.69228439783357
 20
-155.7366460406309
 30
0.0
 11
86.57726597621026
 21
-152.4190506503719
 31
0.0
  0
ARC
  5
117
330
253
100
AcDbEntity
  8
DATA
  6
Continuous
 62
     7
100
AcDbCircle
 10
120.6218249702924
 20
-73.06284489963104
 30
0.0
 40
3.941307192254507
100
AcDbArc
 50
342.2205891995332
 51
157.7794108004668
  0
LINE
  5
118
330
253
100
AcDbEntity
  8
DATA
  6
Continuous
 62
     7
100
AcDbLine
 10
122.5924788164406
 20
-79.32911653442886
 30
0.0
 11
115.0843347763612
 21
-76.59637558925675
 31
0.0
  0
LINE
  5
119
330
253
100
AcDbEntity
  8
DATA
  6
Continuous
 62
     7
100
AcDbLine
 10
121.928276485117
 20
-81.21572220124866
 30
0.0
 11
114.3804565343822
 21
-78.46854040558061
 31
0.0
  0
ARC
  5
11A
330
253
100
AcDbEntity
  8
DATA
  6
Continuous
 62
     7
100
AcDbCircle
 10
35.45298536495927
 20
-147.5
 30
0.0
 40
7.499999999999982
100
AcDbArc
 50
148.9473138136799
 51
249.8431535394299
  0
ARC
  5
11B
330
253
100
AcDbEntity
  8
DATA
  6
Continuous
 62
     7
100
AcDbCircle
 10
35.45298536495927
 20
-147.5
 30
0.0
 40
7.500000000000033
100
AcDbArc
 50
268.9605302186825
 51
311.0394697813172
  0
ARC
  5
11C
330
253
100
AcDbEntity
  8
DATA
  6
Continuous
 62
     7
100
AcDbCircle
 10
35.45298536495927
 20
-147.5
 30
0.0
 40
7.499999999999982
100
AcDbArc
 50
330.1568464605692
 51
71.0526861863201
  0
LINE
  5
11D
330
253
100
AcDbEntity
  8
DATA
  6
Continuous
 62
     7
100
AcDbLine
 10
42.40463557905053
 20
-152.4190506503719
 30
0.0
 11
12.00868160443205
 21
-71.57234706442207
 31
0.0
  0
LINE
  5
11E
330
253
100
AcDbEntity
  8
DATA
  6
Continuous
 62
     7
100
AcDbLine
 10
33.28961715742729
 20
-155.7366460406309
 30
0.0
 11
4.607009445582733
 21
-74.26633541932139
 31
0.0
  0
LINE
  5
11F
330
253
100
AcDbEntity
  8
DATA
  6
Continuous
 62
     7
100
AcDbLine
 10
33.28961715742729
 20
-155.7366460406309
 30
0.0
 11
42.40463557905053
 21
-152.4190506503719
 31
0.0
  0
ARC
  5
120
330
253
100
AcDbEntity
  8
DATA
  6
Continuous
 62
     7
100
AcDbCircle
 10
8.360076584967954
 20
-73.06284489963104
 30
0.0
 40
3.941307192254624
100
AcDbArc
 50
22.2205891995324
 51
197.7794108004664
  0
LINE
  5
121
330
253
100
AcDbEntity
  8
DATA
  6
Continuous
 62
     7
100
AcDbLine
 10
6.389422738819647
 20
-79.32911653442886
 30
0.0
 11
13.8975667788993
 21
-76.59637558925675
 31
0.0
  0
LINE
  5
122
330
253
100
AcDbEntity
  8
DATA
  6
Continuous
 62
     7
100
AcDbLine
 10
7.053625070143297
 20
-81.21572220124866
 30
0.0
 11
14.60144502087838
 21
-78.46854040558061
 31
0.0
  0
TEXT
  5
123
102
{ACAD_XDICTIONARY
360
28D
102
}
330
253
100
AcDbEntity
  8
DATA
 62
     7
100
AcDbText
 10
50.58060462440071
 20
-150.8740864986936
 30
0.0
 40
4.8865234375
  1
DSR70DUAL
 41
0.7
 11
50.58060462440071
 21
-145.9875630611936
 31
0.0
100
AcDbText
 73
     3
1001
AcadAnnotative
1000
AnnotativeData
1002
{
1070
     1
1070
     0
1002
}
  0
ARC
  5
124
330
253
100
AcDbEntity
  8
DATA
  6
Continuous
 62
     7
100
AcDbCircle
 10
-68.99999999999998
 20
-147.8747542183721
 30
0.0
 40
2.500000000000009
100
AcDbArc
 50
113.5781784782024
 51
66.42182152179874
  0
LINE
  5
125
330
253
100
AcDbEntity
  8
DATA
  6
Continuous
 62
     7
100
AcDbLine
 10
-69.00000000000002
 20
-147.1570571303416
 30
0.0
 11
-69.00000000000002
 21
-144.2570571303416
 31
0.0
  0
ARC
  5
126
330
253
100
AcDbEntity
  8
DATA
  6
Continuous
 62
     7
100
AcDbCircle
 10
-86.00000000000001
 20
-121.0
 30
0.0
 40
1.5
100
AcDbArc
 50
90.0
 51
180.0
  0
LINE
  5
127
330
253
100
AcDbEntity
  8
DATA
  6
Continuous
 62
     7
100
AcDbLine
 10
-77.00000000000001
 20
-29.0
 30
0.0
 11
-77.00000000000001
 21
-28.4641016151378
 31
0.0
  0
LINE
  5
128
330
253
100
AcDbEntity
  8
DATA
  6
Continuous
 62
     7
100
AcDbLine
 10
-61.00000000000002
 20
-29.0
 30
0.0
 11
-61.00000000000002
 21
-28.4641016151378
 31
0.0
  0
LINE
  5
129
330
253
100
AcDbEntity
  8
DATA
  6
Continuous
 62
     7
100
AcDbLine
 10
-77.00000000000001
 20
-29.0
 30
0.0
 11
-61.00000000000002
 21
-29.0
 31
0.0
  0
LINE
  5
12A
330
253
100
AcDbEntity
  8
DATA
  6
Continuous
 62
     7
100
AcDbLine
 10
-79.00000000000002
 20
-25.0
 30
0.0
 11
-77.00000000000001
 21
-28.4641016151378
 31
0.0
  0
LINE
  5
12B
330
253
100
AcDbEntity
  8
DATA
  6
Continuous
 62
     7
100
AcDbLine
 10
-59.00000000000002
 20
-25.0
 30
0.0
 11
-61.00000000000002
 21
-28.4641016151378
 31
0.0
  0
LINE
  5
12C
330
253
100
AcDbEntity
  8
DATA
  6
Continuous
 62
     7
100
AcDbLine
 10
-77.00000000000001
 20
-28.4641016151378
 30
0.0
 11
-61.00000000000002
 21
-28.4641016151378
 31
0.0
  0
LINE
  5
12D
330
253
100
AcDbEntity
  8
DATA
  6
Continuous
 62
     7
100
AcDbLine
 10
-49.45
 20
-35.0
 30
0.0
 11
-41.55000000000002
 21
-35.0
 31
0.0
  0
LINE
  5
12E
330
253
100
AcDbEntity
  8
DATA
  6
Continuous
 62
     7
100
AcDbLine
 10
-31.75000000000001
 20
-26.5
 30
0.0
 11
-23.25000000000001
 21
-26.5
 31
0.0
  0
LINE
  5
12F
330
253
100
AcDbEntity
  8
DATA
  6
Continuous
 62
     7
100
AcDbLine
 10
-49.45
 20
-35.0
 30
0.0
 11
-49.75000000000002
 21
-26.5
 31
0.0
  0
LINE
  5
130
330
253
100
AcDbEntity
  8
DATA
  6
Continuous
 62
     7
100
AcDbLine
 10
-41.55000000000002
 20
-35.0
 30
0.0
 11
-41.25000000000001
 21
-26.5
 31
0.0
  0
ARC
  5
131
330
253
100
AcDbEntity
  8
DATA
  6
Continuous
 62
     7
100
AcDbCircle
 10
-28.26499999999955
 20
-16.83999999999912
 30
0.0
 40
10.26941210586176
100
AcDbArc
 50
232.6168030365062
 51
250.1622776315634
  0
ARC
  5
132
330
253
100
AcDbEntity
  8
DATA
  6
Continuous
 62
     7
100
AcDbCircle
 10
-26.73500000000049
 20
-16.83999999999912
 30
0.0
 40
10.26941210586177
100
AcDbArc
 50
289.8377223684367
 51
307.3831969634938
  0
ARC
  5
133
330
253
100
AcDbEntity
  8
DATA
  6
Continuous
 62
     7
100
AcDbCircle
 10
-27.50000000000001
 20
-20.20384615384625
 30
0.0
 40
7.596318401333409
100
AcDbArc
 50
235.9800488898929
 51
304.0199511101072
  0
LINE
  5
134
330
253
100
AcDbEntity
  8
DATA
  6
Continuous
 62
     7
100
AcDbLine
 10
-49.75000000000002
 20
-26.5
 30
0.0
 11
-41.25000000000001
 21
-26.5
 31
0.0
  0
ARC
  5
135
330
253
100
AcDbEntity
  8
DATA
  6
Continuous
 62
     7
100
AcDbCircle
 10
-46.26499999999953
 20
-16.83999999999912
 30
0.0
 40
10.26941210586176
100
AcDbArc
 50
232.6168030365062
 51
250.1622776315634
  0
ARC
  5
136
330
253
100
AcDbEntity
  8
DATA
  6
Continuous
 62
     7
100
AcDbCircle
 10
-44.73500000000047
 20
-16.83999999999912
 30
0.0
 40
10.26941210586177
100
AcDbArc
 50
289.8377223684367
 51
307.3831969634938
  0
LINE
  5
137
330
253
100
AcDbEntity
  8
DATA
  6
Continuous
 62
     7
100
AcDbLine
 10
-9.450000000000002
 20
-35.0
 30
0.0
 11
-1.550000000000025
 21
-35.0
 31
0.0
  0
LINE
  5
138
330
253
100
AcDbEntity
  8
DATA
  6
Continuous
 62
     7
100
AcDbLine
 10
8.249999999999987
 20
-26.5
 30
0.0
 11
16.74999999999998
 21
-26.5
 31
0.0
  0
LINE
  5
139
330
253
100
AcDbEntity
  8
DATA
  6
Continuous
 62
     7
100
AcDbLine
 10
-9.450000000000002
 20
-35.0
 30
0.0
 11
-9.750000000000014
 21
-26.5
 31
0.0
  0
LINE
  5
13A
330
253
100
AcDbEntity
  8
DATA
  6
Continuous
 62
     7
100
AcDbLine
 10
-1.550000000000025
 20
-35.0
 30
0.0
 11
-1.250000000000014
 21
-26.5
 31
0.0
  0
ARC
  5
13B
330
253
100
AcDbEntity
  8
DATA
  6
Continuous
 62
     7
100
AcDbCircle
 10
11.73500000000045
 20
-16.83999999999912
 30
0.0
 40
10.26941210586176
100
AcDbArc
 50
232.6168030365062
 51
250.1622776315634
  0
ARC
  5
13C
330
253
100
AcDbEntity
  8
DATA
  6
Continuous
 62
     7
100
AcDbCircle
 10
13.26499999999951
 20
-16.83999999999912
 30
0.0
 40
10.26941210586177
100
AcDbArc
 50
289.8377223684367
 51
307.3831969634938
  0
ARC
  5
13D
330
253
100
AcDbEntity
  8
DATA
  6
Continuous
 62
     7
100
AcDbCircle
 10
12.49999999999998
 20
-20.20384615384625
 30
0.0
 40
7.596318401333409
100
AcDbArc
 50
235.9800488898929
 51
304.0199511101072
  0
LINE
  5
13E
330
253
100
AcDbEntity
  8
DATA
  6
Continuous
 62
     7
100
AcDbLine
 10
-9.750000000000014
 20
-26.5
 30
0.0
 11
-1.250000000000014
 21
-26.5
 31
0.0
  0
ARC
  5
13F
330
253
100
AcDbEntity
  8
DATA
  6
Continuous
 62
     7
100
AcDbCircle
 10
-6.264999999999545
 20
-16.83999999999912
 30
0.0
 40
10.26941210586176
100
AcDbArc
 50
232.6168030365062
 51
250.1622776315634
  0
ARC
  5
140
330
253
100
AcDbEntity
  8
DATA
  6
Continuous
 62
     7
100
AcDbCircle
 10
-4.735000000000482
 20
-16.83999999999912
 30
0.0
 40
10.26941210586177
100
AcDbArc
 50
289.8377223684367
 51
307.3831969634938
  0
LINE
  5
141
330
253
100
AcDbEntity
  8
DATA
  6
Continuous
 62
     7
100
AcDbLine
 10
112.5
 20
-12.0
 30
0.0
 11
-87.50000000000001
 21
-12.0
 31
0.0
  0
LINE
  5
142
330
253
100
AcDbEntity
  8
DATA
  6
Continuous
 62
     7
100
AcDbLine
 10
112.5
 20
-11.80000000000001
 30
0.0
 11
-87.50000000000001
 21
-11.80000000000001
 31
0.0
  0
LINE
  5
143
330
253
100
AcDbEntity
  8
DATA
  6
Continuous
 62
     7
100
AcDbLine
 10
-87.50000000000001
 20
242.99999999982
 30
0.0
 11
-87.50000000000001
 21
201.49999999982
 31
0.0
  0
LINE
  5
144
330
253
100
AcDbEntity
  8
DATA
  6
Continuous
 62
     7
100
AcDbLine
 10
112.5
 20
242.99999999982
 30
0.0
 11
-87.50000000000001
 21
242.99999999982
 31
0.0
  0
LINE
  5
145
330
253
100
AcDbEntity
  8
DATA
  6
Continuous
 62
     7
100
AcDbLine
 10
112.5
 20
201.49999999982
 30
0.0
 11
112.5
 21
242.99999999982
 31
0.0
  0
LINE
  5
146
330
253
100
AcDbEntity
  8
DATA
  6
Continuous
 62
     7
100
AcDbLine
 10
-86.00000000000001
 20
199.99999999982
 30
0.0
 11
111.0
 21
199.99999999982
 31
0.0
  0
LINE
  5
147
330
253
100
AcDbEntity
  8
DATA
  6
Continuous
 62
     7
100
AcDbLine
 10
-78.7461243640308
 20
244.99999999982
 30
0.0
 11
-68.94612436403086
 21
244.99999999982
 31
0.0
  0
LINE
  5
148
330
253
100
AcDbEntity
  8
DATA
  6
Continuous
 62
     7
100
AcDbLine
 10
-78.7461243640308
 20
244.99999999982
 30
0.0
 11
-79.51324765170205
 21
242.99999999982
 31
0.0
  0
LINE
  5
149
330
253
100
AcDbEntity
  8
DATA
  6
Continuous
 62
     7
100
AcDbLine
 10
-68.94612436403086
 20
244.99999999982
 30
0.0
 11
-68.17900107635961
 21
242.99999999982
 31
0.0
  0
LINE
  5
14A
330
253
100
AcDbEntity
  8
DATA
  6
Continuous
 62
     7
100
AcDbLine
 10
103.7299811256652
 20
244.99999999982
 30
0.0
 11
93.92998112566521
 21
244.99999999982
 31
0.0
  0
LINE
  5
14B
330
253
100
AcDbEntity
  8
DATA
  6
Continuous
 62
     7
100
AcDbLine
 10
103.7299811256652
 20
244.99999999982
 30
0.0
 11
104.4971044133364
 21
242.99999999982
 31
0.0
  0
LINE
  5
14C
330
253
100
AcDbEntity
  8
DATA
  6
Continuous
 62
     7
100
AcDbLine
 10
93.92998112566521
 20
244.99999999982
 30
0.0
 11
93.16285783799399
 21
242.99999999982
 31
0.0
  0
LINE
  5
14D
330
253
100
AcDbEntity
  8
DATA
  6
Continuous
 62
     7
100
AcDbLine
 10
99.03259577768057
 20
199.99999999982
 30
0.0
 11
117.0519666131598
 21
152.0723470642421
 31
0.0
  0
LINE
  5
14E
330
253
100
AcDbEntity
  8
DATA
  6
Continuous
 62
     7
100
AcDbLine
 10
108.528580347138
 20
199.99999999982
 30
0.0
 11
124.453638772009
 21
154.7663354191414
 31
0.0
  0
ARC
  5
14F
330
253
100
AcDbEntity
  8
DATA
  6
Continuous
 62
     7
100
AcDbCircle
 10
120.7005716326238
 20
153.5628448994511
 30
0.0
 40
3.941307192254488
100
AcDbArc
 50
202.220589199533
 51
17.77941080046705
  0
LINE
  5
150
330
253
100
AcDbEntity
  8
DATA
  6
Continuous
 62
     7
100
AcDbLine
 10
122.6712254787721
 20
159.8291165342489
 30
0.0
 11
115.1630814386927
 21
157.0963755890768
 31
0.0
  0
LINE
  5
151
330
253
100
AcDbEntity
  8
DATA
  6
Continuous
 62
     7
100
AcDbLine
 10
122.0070231474485
 20
161.7157222010687
 30
0.0
 11
114.4592031967136
 21
158.9685404054006
 31
0.0
  0
LINE
  5
152
330
253
100
AcDbEntity
  8
DATA
  6
Continuous
 62
     7
100
AcDbLine
 10
29.86135913343331
 20
199.99999999982
 30
0.0
 11
11.84198829795398
 21
152.0723470642421
 31
0.0
  0
LINE
  5
153
330
253
100
AcDbEntity
  8
DATA
  6
Continuous
 62
     7
100
AcDbLine
 10
20.36537456397586
 20
199.99999999982
 30
0.0
 11
4.440316139104921
 21
154.7663354191414
 31
0.0
  0
ARC
  5
154
330
253
100
AcDbEntity
  8
DATA
  6
Continuous
 62
     7
100
AcDbCircle
 10
8.193383278490031
 20
153.5628448994511
 30
0.0
 40
3.941307192254483
100
AcDbArc
 50
162.2205891995328
 51
337.7794108004669
  0
LINE
  5
155
330
253
100
AcDbEntity
  8
DATA
  6
Continuous
 62
     7
100
AcDbLine
 10
6.222729432341779
 20
159.8291165342489
 30
0.0
 11
13.73087347242118
 21
157.0963755890768
 31
0.0
  0
LINE
  5
156
330
253
100
AcDbEntity
  8
DATA
  6
Continuous
 62
     7
100
AcDbLine
 10
6.886931763665401
 20
161.7157222010687
 30
0.0
 11
14.43475171440023
 21
158.9685404054006
 31
0.0
  0
ARC
  5
157
330
253
100
AcDbEntity
  8
DATA
  6
Continuous
 62
     7
100
AcDbCircle
 10
-86.00000000000001
 20
201.49999999982
 30
0.0
 40
1.5
100
AcDbArc
 50
180.0
 51
270.0
  0
ARC
  5
158
330
253
100
AcDbEntity
  8
DATA
  6
Continuous
 62
     7
100
AcDbCircle
 10
111.0
 20
201.49999999982
 30
0.0
 40
1.5
100
AcDbArc
 50
270.0
 51
0.0
  0
TEXT
  5
159
102
{ACAD_XDICTIONARY
360
289
102
}
330
253
100
AcDbEntity
  8
DATA
 62
     7
100
AcDbText
 10
-25.13514272113532
 20
239.5442803583808
 30
0.0
 40
2.44326171875
  1
CH 1 OUTPUT
 50
180.0
 41
0.7
 11
-25.13514272113532
 21
237.1010186396308
 31
0.0
100
AcDbText
 73
     3
1001
AcadAnnotative
1000
AnnotativeData
1002
{
1070
     1
1070
     0
1002
}
  0
TEXT
  5
15A
102
{ACAD_XDICTIONARY
360
285
102
}
330
253
100
AcDbEntity
  8
DATA
 62
     7
100
AcDbText
 10
15.36485727886468
 20
239.5442803583808
 30
0.0
 40
2.44326171875
  1
CH 2 OUTPUT
 50
180.0
 41
0.7
 11
15.36485727886468
 21
237.1010186396308
 31
0.0
100
AcDbText
 73
     3
1001
AcadAnnotative
1000
AnnotativeData
1002
{
1070
     1
1070
     0
1002
}
  0
CIRCLE
  5
15B
330
253
100
AcDbEntity
  8
DATA
  6
Continuous
 62
     7
100
AcDbCircle
 10
84.59462623665274
 20
227.99999999982
 30
0.0
 40
0.5
  0
LWPOLYLINE
  5
15C
330
253
100
AcDbEntity
  8
DATA
  6
Continuous
 62
     7
100
AcDbPolyline
 90
        4
 70
     1
 43
0.0
 10
80.09462623665275
 20
233.99999999982
 10
89.09462623665259
 20
233.99999999982
 10
89.09462623665259
 20
223.49999999982
 10
80.09462623665275
 20
223.49999999982
  0
CIRCLE
  5
163
330
253
100
AcDbEntity
  8
DATA
  6
Continuous
 62
     7
100
AcDbCircle
 10
84.59462623665274
 20
227.99999999982
 30
0.0
 40
3.164999999999864
  0
TEXT
  5
164
102
{ACAD_XDICTIONARY
360
281
102
}
330
253
100
AcDbEntity
  8
DATA
 62
     7
100
AcDbText
 10
77.9914325139803
 20
225.1198019913971
 30
0.0
 40
1.954609375
  1
12V500mA
 50
180.0
 41
0.7
 11
77.9914325139803
 21
223.1651926163971
 31
0.0
100
AcDbText
 73
     3
1001
AcadAnnotative
1000
AnnotativeData
1002
{
1070
     1
1070
     0
1002
}
  0
LINE
  5
165
330
253
100
AcDbEntity
  8
DATA
  6
Continuous
 62
     7
100
AcDbLine
 10
77.49893116823987
 20
226.1429019913972
 30
0.0
 11
68.1989311682399
 21
226.1429019913972
 31
0.0
  0
LINE
  5
166
330
253
100
AcDbEntity
  8
DATA
  6
Continuous
 62
     7
100
AcDbLine
 10
76.74777542016959
 20
227.0411122700206
 30
0.0
 11
74.99777542016959
 21
227.0411122700206
 31
0.0
  0
LINE
  5
167
330
253
100
AcDbEntity
  8
DATA
  6
Continuous
 62
     7
100
AcDbLine
 10
73.94777542016957
 20
227.0411122700206
 30
0.0
 11
72.19777542016956
 21
227.0411122700206
 31
0.0
  0
LINE
  5
168
330
253
100
AcDbEntity
  8
DATA
  6
Continuous
 62
     7
100
AcDbLine
 10
71.14777542016959
 20
227.0411122700206
 30
0.0
 11
69.39777542016959
 21
227.0411122700206
 31
0.0
  0
LINE
  5
169
330
253
100
AcDbEntity
  8
DATA
  6
Continuous
 62
     7
100
AcDbLine
 10
75.23871335996338
 20
229.6386067569397
 30
0.0
 11
74.38871335996366
 21
229.6386067569397
 31
0.0
  0
LINE
  5
16A
330
253
100
AcDbEntity
  8
DATA
  6
Continuous
 62
     7
100
AcDbLine
 10
72.58871335996987
 20
229.6386067569397
 30
0.0
 11
71.09871335996335
 21
229.6386067569397
 31
0.0
  0
CIRCLE
  5
16B
330
253
100
AcDbEntity
  8
DATA
  6
Continuous
 62
     7
100
AcDbCircle
 10
73.03871335996333
 20
229.6386067569397
 30
0.0
 40
0.4500000000000028
  0
ARC
  5
16C
330
253
100
AcDbEntity
  8
DATA
  6
Continuous
 62
     7
100
AcDbCircle
 10
73.03871335996332
 20
229.6386067569397
 30
0.0
 40
1.349999999999971
100
AcDbArc
 50
225.1680788418447
 51
134.8319211581554
  0
LINE
  5
16D
330
253
100
AcDbEntity
  8
DATA
  6
Continuous
 62
     7
100
AcDbLine
 10
77.42423367772548
 20
229.6386067569397
 30
0.0
 11
76.1492336777259
 21
229.6386067569397
 31
0.0
  0
LINE
  5
16E
330
253
100
AcDbEntity
  8
DATA
  6
Continuous
 62
     7
100
AcDbLine
 10
70.15789250237798
 20
229.6386067569397
 30
0.0
 11
68.88289250237839
 21
229.6386067569397
 31
0.0
  0
LINE
  5
16F
330
253
100
AcDbEntity
  8
DATA
  6
Continuous
 62
     7
100
AcDbLine
 10
69.52039250237816
 20
229.0011067569399
 30
0.0
 11
69.52039250237816
 21
230.2761067569395
 31
0.0
  0
TEXT
  5
170
102
{ACAD_XDICTIONARY
360
27D
102
}
330
253
100
AcDbEntity
  8
DATA
 62
     7
100
AcDbText
 10
77.41565527296595
 20
233.9532489431722
 30
0.0
 40
1.954609375
  1
DC ONLY
 50
180.0
 41
0.7
 11
77.41565527296595
 21
231.9986395681723
 31
0.0
100
AcDbText
 73
     3
1001
AcadAnnotative
1000
AnnotativeData
1002
{
1070
     1
1070
     0
1002
}
  0
LINE
  5
171
330
253
100
AcDbEntity
  8
DATA
  6
Continuous
 62
     7
100
AcDbLine
 10
76.09462623665277
 20
215.9274438948533
 30
0.0
 11
76.09462623665277
 21
219.9274438948533
 31
0.0
  0
LINE
  5
172
330
253
100
AcDbEntity
  8
DATA
  6
Continuous
 62
     7
100
AcDbLine
 10
93.09462623665259
 20
215.9274438948533
 30
0.0
 11
89.09462623665261
 21
215.9274438948533
 31
0.0
  0
LINE
  5
173
330
253
100
AcDbEntity
  8
DATA
  6
Continuous
 62
     7
100
AcDbLine
 10
80.09462623665276
 20
215.9274438948533
 30
0.0
 11
76.09462623665277
 21
215.9274438948533
 31
0.0
  0
LINE
  5
174
330
253
100
AcDbEntity
  8
DATA
  6
Continuous
 62
     7
100
AcDbLine
 10
93.09462623665259
 20
219.9274438948533
 30
0.0
 11
93.09462623665259
 21
215.9274438948533
 31
0.0
  0
LINE
  5
175
330
253
100
AcDbEntity
  8
DATA
  6
Continuous
 62
     7
100
AcDbLine
 10
76.09462623665277
 20
219.9274438948533
 30
0.0
 11
93.09462623665259
 21
219.9274438948533
 31
0.0
  0
LINE
  5
176
330
253
100
AcDbEntity
  8
DATA
  6
Continuous
 62
     7
100
AcDbLine
 10
80.09462623665276
 20
213.9274438948533
 30
0.0
 11
80.09462623665276
 21
219.9274438948533
 31
0.0
  0
LINE
  5
177
330
253
100
AcDbEntity
  8
DATA
  6
Continuous
 62
     7
100
AcDbLine
 10
89.09462623665261
 20
213.9274438948533
 30
0.0
 11
80.09462623665276
 21
213.9274438948533
 31
0.0
  0
LINE
  5
178
330
253
100
AcDbEntity
  8
DATA
  6
Continuous
 62
     7
100
AcDbLine
 10
89.09462623665261
 20
219.9274438948533
 30
0.0
 11
89.09462623665261
 21
213.9274438948533
 31
0.0
  0
CIRCLE
  5
179
330
253
100
AcDbEntity
  8
DATA
  6
Continuous
 62
     7
100
AcDbCircle
 10
84.59462623665274
 20
210.6039482506509
 30
0.0
 40
2.299999999999947
  0
LINE
  5
17A
330
253
100
AcDbEntity
  8
DATA
  6
Continuous
 62
     7
100
AcDbLine
 10
86.01146155461812
 20
210.6039482506509
 30
0.0
 11
83.17779091868729
 21
210.6039482506509
 31
0.0
  0
LINE
  5
17B
330
253
100
AcDbEntity
  8
DATA
  6
Continuous
 62
     7
100
AcDbLine
 10
84.59462623665274
 20
209.1871129326869
 30
0.0
 11
84.59462623665274
 21
212.020783568615
 31
0.0
  0
LINE
  5
17C
330
253
100
AcDbEntity
  8
DATA
  6
Continuous
 62
     7
100
AcDbLine
 10
-82.30000000000002
 20
205.19999999982
 30
0.0
 11
107.3
 21
205.19999999982
 31
0.0
  0
LINE
  5
17D
330
253
100
AcDbEntity
  8
DATA
  6
Continuous
 62
     7
100
AcDbLine
 10
-82.30000000000002
 20
242.99999999982
 30
0.0
 11
-82.30000000000002
 21
205.19999999982
 31
0.0
  0
LINE
  5
17E
330
253
100
AcDbEntity
  8
DATA
  6
Continuous
 62
     7
100
AcDbLine
 10
107.3
 20
205.19999999982
 30
0.0
 11
107.3
 21
242.99999999982
 31
0.0
  0
LINE
  5
17F
330
253
100
AcDbEntity
  8
DATA
  6
Continuous
 62
     7
100
AcDbLine
 10
107.3
 20
205.19999999982
 30
0.0
 11
112.0606601717798
 21
200.4393398280401
 31
0.0
  0
LINE
  5
180
330
253
100
AcDbEntity
  8
DATA
  6
Continuous
 62
     7
100
AcDbLine
 10
-82.30000000000002
 20
205.19999999982
 30
0.0
 11
-87.06066017177985
 21
200.4393398280401
 31
0.0
  0
LINE
  5
181
330
253
100
AcDbEntity
  8
DATA
  6
Continuous
 62
     7
100
AcDbLine
 10
58.18650338893404
 20
230.99999999982
 30
0.0
 11
58.18650338893404
 21
234.99999999982
 31
0.0
  0
LINE
  5
182
330
253
100
AcDbEntity
  8
DATA
  6
Continuous
 62
     7
100
AcDbLine
 10
50.18650338893404
 20
230.99999999982
 30
0.0
 11
50.18650338893404
 21
234.99999999982
 31
0.0
  0
LINE
  5
183
330
253
100
AcDbEntity
  8
DATA
  6
Continuous
 62
     7
100
AcDbLine
 10
50.18650338893404
 20
230.99999999982
 30
0.0
 11
58.18650338893404
 21
230.99999999982
 31
0.0
  0
LINE
  5
184
330
253
100
AcDbEntity
  8
DATA
  6
Continuous
 62
     7
100
AcDbLine
 10
50.18650338893404
 20
234.99999999982
 30
0.0
 11
58.18650338893404
 21
234.99999999982
 31
0.0
  0
LINE
  5
185
330
253
100
AcDbEntity
  8
DATA
  6
Continuous
 62
     7
100
AcDbLine
 10
52.66650338893403
 20
230.99999999982
 30
0.0
 11
52.66650338893403
 21
234.99999999982
 31
0.0
  0
TEXT
  5
186
102
{ACAD_XDICTIONARY
360
279
102
}
330
253
100
AcDbEntity
  8
DATA
 62
     7
100
AcDbText
 10
55.64191727098052
 20
237.0512000718971
 30
0.0
 40
1.221630859375
  1
MID
 50
180.0
 41
0.7
 11
55.64191727098052
 21
235.8295692125221
 31
0.0
100
AcDbText
 73
     3
1001
AcadAnnotative
1000
AnnotativeData
1002
{
1070
     1
1070
     0
1002
}
  0
TEXT
  5
187
102
{ACAD_XDICTIONARY
360
275
102
}
330
253
100
AcDbEntity
  8
DATA
 62
     7
100
AcDbText
 10
49.81966532691512
 20
237.0512000718971
 30
0.0
 40
1.221630859375
  1
HIGH
 50
180.0
 41
0.7
 11
49.81966532691512
 21
235.8295692125221
 31
0.0
100
AcDbText
 73
     3
1001
AcadAnnotative
1000
AnnotativeData
1002
{
1070
     1
1070
     0
1002
}
  0
TEXT
  5
188
102
{ACAD_XDICTIONARY
360
271
102
}
330
253
100
AcDbEntity
  8
DATA
 62
     7
100
AcDbText
 10
60.70010090882647
 20
237.0512000718971
 30
0.0
 40
1.221630859375
  1
LOW
 50
180.0
 41
0.7
 11
60.70010090882647
 21
235.8295692125221
 31
0.0
100
AcDbText
 73
     3
1001
AcadAnnotative
1000
AnnotativeData
1002
{
1070
     1
1070
     0
1002
}
  0
LINE
  5
189
330
253
100
AcDbEntity
  8
DATA
  6
Continuous
 62
     7
100
AcDbLine
 10
50.78650338893403
 20
230.99999999982
 30
0.0
 11
50.78650338893403
 21
234.99999999982
 31
0.0
  0
LINE
  5
18A
330
253
100
AcDbEntity
  8
DATA
  6
Continuous
 62
     7
100
AcDbLine
 10
51.38650338893403
 20
230.99999999982
 30
0.0
 11
51.38650338893403
 21
234.99999999982
 31
0.0
  0
LINE
  5
18B
330
253
100
AcDbEntity
  8
DATA
  6
Continuous
 62
     7
100
AcDbLine
 10
51.98650338893404
 20
230.99999999982
 30
0.0
 11
51.98650338893404
 21
234.99999999982
 31
0.0
  0
TEXT
  5
18C
102
{ACAD_XDICTIONARY
360
26D
102
}
330
253
100
AcDbEntity
  8
DATA
 62
     7
100
AcDbText
 10
60.4423576945532
 20
229.6054496219887
 30
0.0
 40
1.221630859375
  1
AUTO CORRECTION
 50
180.0
 41
0.7
 11
60.4423576945532
 21
228.3838187626137
 31
0.0
100
AcDbText
 73
     3
1001
AcadAnnotative
1000
AnnotativeData
1002
{
1070
     1
1070
     0
1002
}
  0
LINE
  5
18D
330
253
100
AcDbEntity
  8
DATA
  6
Continuous
 62
     7
100
AcDbLine
 10
86.96008510883126
 20
-37.51679509831745
 30
0.0
 11
86.96008510883126
 21
-28.22179509831747
 31
0.0
  0
LINE
  5
18E
330
253
100
AcDbEntity
  8
DATA
  6
Continuous
 62
     7
100
AcDbLine
 10
120.4605147543571
 20
-28.87730264440245
 30
0.0
 11
86.96008510883126
 21
-28.22179509831747
 31
0.0
  0
LINE
  5
18F
330
253
100
AcDbEntity
  8
DATA
  6
Continuous
 62
     7
100
AcDbLine
 10
120.4605147543571
 20
-36.86730264440245
 30
0.0
 11
86.96008510883126
 21
-37.51679509831745
 31
0.0
  0
ARC
  5
190
330
253
100
AcDbEntity
  8
DATA
  6
Continuous
 62
     7
100
AcDbCircle
 10
119.1104599279706
 20
-32.87230264440245
 30
0.0
 40
4.216950679608387
100
AcDbArc
 50
288.6719687562063
 51
71.32803124379361
  0
LINE
  5
191
330
253
100
AcDbEntity
  8
DATA
  6
Continuous
 62
     7
100
AcDbLine
 10
90.09697077044464
 20
-28.28317497446088
 30
0.0
 11
90.09697077044464
 21
-26.60000000000002
 31
0.0
  0
LINE
  5
192
330
253
100
AcDbEntity
  8
DATA
  6
Continuous
 62
     7
100
AcDbLine
 10
97.89697077044465
 20
-28.43579865462152
 30
0.0
 11
97.89697077044465
 21
-26.60000000000002
 31
0.0
  0
ARC
  5
193
330
253
100
AcDbEntity
  8
DATA
  6
Continuous
 62
     7
100
AcDbCircle
 10
90.77128655109458
 20
-23.02568421935013
 30
0.0
 40
4.982197071857521
100
AcDbArc
 50
203.345461637278
 51
225.8416808177052
  0
ARC
  5
194
330
253
100
AcDbEntity
  8
DATA
  6
Continuous
 62
     7
100
AcDbCircle
 10
97.22265498979478
 20
-23.02568421935013
 30
0.0
 40
4.982197071857498
100
AcDbArc
 50
314.1583191822947
 51
336.654538362722
  0
LINE
  5
195
330
253
100
AcDbEntity
  8
DATA
  6
Continuous
 62
     7
100
AcDbLine
 10
87.3004718970079
 20
-26.60000000000002
 30
0.0
 11
100.6934696438814
 21
-26.60000000000002
 31
0.0
  0
LINE
  5
196
330
253
100
AcDbEntity
  8
DATA
  6
Continuous
 62
     7
100
AcDbLine
 10
116.7969707704447
 20
-28.80561757193385
 30
0.0
 11
116.7969707704447
 21
-36.93832991770356
 31
0.0
  0
LINE
  5
197
330
253
100
AcDbEntity
  8
DATA
  6
Continuous
 62
     7
100
AcDbLine
 10
115.1969707704447
 20
-28.77431015036245
 30
0.0
 11
115.1969707704447
 21
-36.96935005497522
 31
0.0
  0
LINE
  5
198
330
253
100
AcDbEntity
  8
DATA
  6
Continuous
 62
     7
100
AcDbLine
 10
42.46520204057293
 20
-37.51679509831745
 30
0.0
 11
42.46520204057293
 21
-28.22179509831747
 31
0.0
  0
LINE
  5
199
330
253
100
AcDbEntity
  8
DATA
  6
Continuous
 62
     7
100
AcDbLine
 10
8.964772395047093
 20
-28.87730264440245
 30
0.0
 11
42.46520204057293
 21
-28.22179509831747
 31
0.0
  0
LINE
  5
19A
330
253
100
AcDbEntity
  8
DATA
  6
Continuous
 62
     7
100
AcDbLine
 10
8.964772395047093
 20
-36.86730264440245
 30
0.0
 11
42.46520204057293
 21
-37.51679509831745
 31
0.0
  0
ARC
  5
19B
330
253
100
AcDbEntity
  8
DATA
  6
Continuous
 62
     7
100
AcDbCircle
 10
10.31482722143364
 20
-32.87230264440245
 30
0.0
 40
4.216950679608391
100
AcDbArc
 50
108.6719687562065
 51
251.3280312437935
  0
LINE
  5
19C
330
253
100
AcDbEntity
  8
DATA
  6
Continuous
 62
     7
100
AcDbLine
 10
39.32831637895954
 20
-28.28317497446088
 30
0.0
 11
39.32831637895954
 21
-26.60000000000002
 31
0.0
  0
LINE
  5
19D
330
253
100
AcDbEntity
  8
DATA
  6
Continuous
 62
     7
100
AcDbLine
 10
31.52831637895955
 20
-28.43579865462152
 30
0.0
 11
31.52831637895955
 21
-26.60000000000002
 31
0.0
  0
ARC
  5
19E
330
253
100
AcDbEntity
  8
DATA
  6
Continuous
 62
     7
100
AcDbCircle
 10
38.65400059830964
 20
-23.02568421935013
 30
0.0
 40
4.982197071857508
100
AcDbArc
 50
314.1583191822949
 51
336.654538362722
  0
ARC
  5
19F
330
253
100
AcDbEntity
  8
DATA
  6
Continuous
 62
     7
100
AcDbCircle
 10
32.20263215960943
 20
-23.02568421935013
 30
0.0
 40
4.982197071857509
100
AcDbArc
 50
203.345461637278
 51
225.8416808177053
  0
LINE
  5
1A0
330
253
100
AcDbEntity
  8
DATA
  6
Continuous
 62
     7
100
AcDbLine
 10
42.12481525239629
 20
-26.60000000000002
 30
0.0
 11
28.7318175055228
 21
-26.60000000000002
 31
0.0
  0
LINE
  5
1A1
330
253
100
AcDbEntity
  8
DATA
  6
Continuous
 62
     7
100
AcDbLine
 10
12.62831637895952
 20
-28.80561757193385
 30
0.0
 11
12.62831637895952
 21
-36.93832991770356
 31
0.0
  0
LINE
  5
1A2
330
253
100
AcDbEntity
  8
DATA
  6
Continuous
 62
     7
100
AcDbLine
 10
14.22831637895952
 20
-28.77431015036245
 30
0.0
 11
14.22831637895952
 21
-36.96935005497522
 31
0.0
  0
LINE
  5
1A3
330
253
100
AcDbEntity
  8
DATA
  6
Continuous
 62
     7
100
AcDbLine
 10
250.0
 20
-162.5
 30
0.0
 11
375.0
 21
-162.5
 31
0.0
  0
LINE
  5
1A4
330
253
100
AcDbEntity
  8
DATA
  6
Continuous
 62
     7
100
AcDbLine
 10
250.0
 20
-119.5
 30
0.0
 11
375.0
 21
-119.5
 31
0.0
  0
LINE
  5
1A5
330
253
100
AcDbEntity
  8
DATA
  6
Continuous
 62
     7
100
AcDbLine
 10
250.0
 20
-162.5
 30
0.0
 11
250.0
 21
-119.5
 31
0.0
  0
LINE
  5
1A6
330
253
100
AcDbEntity
  8
DATA
  6
Continuous
 62
     7
100
AcDbLine
 10
263.0
 20
-162.5
 30
0.0
 11
263.0
 21
-119.5
 31
0.0
  0
LINE
  5
1A7
330
253
100
AcDbEntity
  8
DATA
  6
Continuous
 62
     7
100
AcDbLine
 10
263.5
 20
-162.5
 30
0.0
 11
263.5
 21
-119.5
 31
0.0
  0
LINE
  5
1A8
330
253
100
AcDbEntity
  8
DATA
  6
Continuous
 62
     7
100
AcDbLine
 10
237.483204901352
 20
-155.7408066493688
 30
0.0
 11
246.7782049013521
 21
-155.7408066493688
 31
0.0
  0
LINE
  5
1A9
330
253
100
AcDbEntity
  8
DATA
  6
Continuous
 62
     7
100
AcDbLine
 10
246.122697355267
 20
-72.05238026024298
 30
0.0
 11
246.7782049013521
 21
-155.7408066493688
 31
0.0
  0
LINE
  5
1AA
330
253
100
AcDbEntity
  8
DATA
  6
Continuous
 62
     7
100
AcDbLine
 10
238.132697355267
 20
-72.05238026024298
 30
0.0
 11
237.483204901352
 21
-155.7408066493688
 31
0.0
  0
ARC
  5
1AB
330
253
100
AcDbEntity
  8
DATA
  6
Continuous
 62
     7
100
AcDbCircle
 10
242.127697355267
 20
-73.40243508662954
 30
0.0
 40
4.216950679608391
100
AcDbArc
 50
18.67196875620648
 51
161.3280312437935
  0
LINE
  5
1AC
330
253
100
AcDbEntity
  8
DATA
  6
Continuous
 62
     7
100
AcDbLine
 10
246.7536345717245
 20
-152.6039209877554
 30
0.0
 11
248.3999999996695
 21
-152.6039209877554
 31
0.0
  0
LINE
  5
1AD
330
253
100
AcDbEntity
  8
DATA
  6
Continuous
 62
     7
100
AcDbLine
 10
246.6925393990696
 20
-144.8039209877554
 30
0.0
 11
248.3999999996695
 21
-144.8039209877554
 31
0.0
  0
ARC
  5
1AE
330
253
100
AcDbEntity
  8
DATA
  6
Continuous
 62
     7
100
AcDbCircle
 10
251.9743157803194
 20
-151.9296052071055
 30
0.0
 40
4.982197071857518
100
AcDbArc
 50
224.158319182295
 51
246.6545383627221
  0
ARC
  5
1AF
330
253
100
AcDbEntity
  8
DATA
  6
Continuous
 62
     7
100
AcDbCircle
 10
251.9743157803194
 20
-145.4782367684053
 30
0.0
 40
4.982197071857535
100
AcDbArc
 50
113.3454616372779
 51
135.841680817705
  0
LINE
  5
1B0
330
253
100
AcDbEntity
  8
DATA
  6
Continuous
 62
     7
100
AcDbLine
 10
248.3999999996695
 20
-155.4004198611921
 30
0.0
 11
248.3999999996695
 21
-142.0074221143187
 31
0.0
  0
LINE
  5
1B1
330
253
100
AcDbEntity
  8
DATA
  6
Continuous
 62
     7
100
AcDbLine
 10
246.1513928491422
 20
-75.71592424415539
 30
0.0
 11
238.1042651780258
 21
-75.71592424415539
 31
0.0
  0
LINE
  5
1B2
330
253
100
AcDbEntity
  8
DATA
  6
Continuous
 62
     7
100
AcDbLine
 10
246.1639251922509
 20
-77.31592424415541
 30
0.0
 11
238.0918478346594
 21
-77.31592424415541
 31
0.0
  0
LINE
  5
1B3
330
253
100
AcDbEntity
  8
DATA
  6
Continuous
 62
     7
100
AcDbLine
 10
288.685202141482
 20
-164.5
 30
0.0
 11
278.885202141482
 21
-164.5
 31
0.0
  0
LINE
  5
1B4
330
253
100
AcDbEntity
  8
DATA
  6
Continuous
 62
     7
100
AcDbLine
 10
288.685202141482
 20
-164.5
 30
0.0
 11
289.4523254291532
 21
-162.5
 31
0.0
  0
LINE
  5
1B5
330
253
100
AcDbEntity
  8
DATA
  6
Continuous
 62
     7
100
AcDbLine
 10
278.885202141482
 20
-164.5
 30
0.0
 11
278.1180788538108
 21
-162.5
 31
0.0
  0
LINE
  5
1B6
330
253
100
AcDbEntity
  8
DATA
  6
Continuous
 62
     7
100
AcDbLine
 10
366.685202141482
 20
-164.5
 30
0.0
 11
356.885202141482
 21
-164.5
 31
0.0
  0
LINE
  5
1B7
330
253
100
AcDbEntity
  8
DATA
  6
Continuous
 62
     7
100
AcDbLine
 10
366.685202141482
 20
-164.5
 30
0.0
 11
367.4523254291532
 21
-162.5
 31
0.0
  0
LINE
  5
1B8
330
253
100
AcDbEntity
  8
DATA
  6
Continuous
 62
     7
100
AcDbLine
 10
356.885202141482
 20
-164.5
 30
0.0
 11
356.1180788538107
 21
-162.5
 31
0.0
  0
CIRCLE
  5
1B9
330
253
100
AcDbEntity
  8
DATA
  6
Continuous
 62
     7
100
AcDbCircle
 10
282.0525315505719
 20
-131.5898581249098
 30
0.0
 40
2.900000000000005
  0
CIRCLE
  5
1BA
330
253
100
AcDbEntity
  8
DATA
  6
Continuous
 62
     7
100
AcDbCircle
 10
282.0525315505719
 20
-131.5898581249098
 30
0.0
 40
6.0
  0
LINE
  5
1BB
330
253
100
AcDbEntity
  8
DATA
  6
Continuous
 62
     7
100
AcDbLine
 10
280.602531550572
 20
-131.5898581249098
 30
0.0
 11
283.5025315505719
 21
-131.5898581249098
 31
0.0
  0
LINE
  5
1BC
330
253
100
AcDbEntity
  8
DATA
  6
Continuous
 62
     7
100
AcDbLine
 10
282.0525315505719
 20
-133.0398581249098
 30
0.0
 11
282.0525315505719
 21
-130.1398581249098
 31
0.0
  0
CIRCLE
  5
1BD
330
253
100
AcDbEntity
  8
DATA
  6
Continuous
 62
     7
100
AcDbCircle
 10
347.0693587322345
 20
-131.5898581249098
 30
0.0
 40
2.899999999999977
  0
CIRCLE
  5
1BE
330
253
100
AcDbEntity
  8
DATA
  6
Continuous
 62
     7
100
AcDbCircle
 10
347.0693587322345
 20
-131.5898581249098
 30
0.0
 40
6.0
  0
LINE
  5
1BF
330
253
100
AcDbEntity
  8
DATA
  6
Continuous
 62
     7
100
AcDbLine
 10
345.6193587322345
 20
-131.5898581249098
 30
0.0
 11
348.5193587322345
 21
-131.5898581249098
 31
0.0
  0
LINE
  5
1C0
330
253
100
AcDbEntity
  8
DATA
  6
Continuous
 62
     7
100
AcDbLine
 10
347.0693587322345
 20
-133.0398581249098
 30
0.0
 11
347.0693587322345
 21
-130.1398581249098
 31
0.0
  0
LINE
  5
1C1
330
253
100
AcDbEntity
  8
DATA
  6
Continuous
 62
     7
100
AcDbLine
 10
375.0
 20
-119.5
 30
0.0
 11
375.0
 21
-162.5
 31
0.0
  0
LINE
  5
1C2
330
253
100
AcDbEntity
  8
DATA
  6
Continuous
 62
     7
100
AcDbLine
 10
387.5
 20
-133.43
 30
0.0
 11
387.5
 21
-139.43
 31
0.0
  0
ARC
  5
1C3
330
253
100
AcDbEntity
  8
DATA
  6
Continuous
 62
     7
100
AcDbCircle
 10
375.0
 20
-127.21
 30
0.0
 40
1.870000000000004
100
AcDbArc
 50
270.0
 51
90.0
  0
LINE
  5
1C4
330
253
100
AcDbEntity
  8
DATA
  6
Continuous
 62
     7
100
AcDbLine
 10
375.0
 20
-139.43
 30
0.0
 11
387.5
 21
-139.43
 31
0.0
  0
LINE
  5
1C5
330
253
100
AcDbEntity
  8
DATA
  6
Continuous
 62
     7
100
AcDbLine
 10
375.0
 20
-133.43
 30
0.0
 11
387.5
 21
-133.43
 31
0.0
  0
LINE
  5
1C6
330
253
100
AcDbEntity
  8
DATA
  6
Continuous
 62
     7
100
AcDbLine
 10
375.0
 20
-135.15
 30
0.0
 11
387.5
 21
-135.15
 31
0.0
  0
LINE
  5
1C7
330
253
100
AcDbEntity
  8
DATA
  6
Continuous
 62
     7
100
AcDbLine
 10
-57.00000000000002
 20
-156.5
 30
0.0
 11
-57.00000000000002
 21
-124.5
 31
0.0
  0
LINE
  5
1C8
330
253
100
AcDbEntity
  8
DATA
  6
Continuous
 62
     7
100
AcDbLine
 10
103.7299999999999
 20
-164.5
 30
0.0
 11
93.93
 21
-164.5
 31
0.0
  0
LINE
  5
1C9
330
253
100
AcDbEntity
  8
DATA
  6
Continuous
 62
     7
100
AcDbLine
 10
103.7299999999999
 20
-164.5
 30
0.0
 11
104.4971232876712
 21
-162.5
 31
0.0
  0
LINE
  5
1CA
330
253
100
AcDbEntity
  8
DATA
  6
Continuous
 62
     7
100
AcDbLine
 10
93.93
 20
-164.5
 30
0.0
 11
93.16287671232876
 21
-162.5
 31
0.0
  0
LINE
  5
1CB
330
253
100
AcDbEntity
  8
DATA
  6
Continuous
 62
     7
100
AcDbLine
 10
50.18650338893404
 20
103.0
 30
0.0
 11
50.18650338893404
 21
100.0
 31
0.0
  0
LINE
  5
1CC
330
253
100
AcDbEntity
  8
DATA
  6
Continuous
 62
     7
100
AcDbLine
 10
52.66650338893403
 20
103.0
 30
0.0
 11
52.66650338893403
 21
100.0
 31
0.0
  0
LINE
  5
1CD
330
253
100
AcDbEntity
  8
DATA
  6
Continuous
 62
     7
100
AcDbLine
 10
50.18650338893404
 20
103.0
 30
0.0
 11
52.66650338893403
 21
103.0
 31
0.0
  0
LINE
  5
1CE
330
253
100
AcDbEntity
  8
DATA
  6
Continuous
 62
     7
100
AcDbLine
 10
80.09000000000003
 20
108.5
 30
0.0
 11
80.09000000000003
 21
100.0
 31
0.0
  0
LINE
  5
1CF
330
253
100
AcDbEntity
  8
DATA
  6
Continuous
 62
     7
100
AcDbLine
 10
97.09000000000001
 20
108.5
 30
0.0
 11
97.09000000000001
 21
100.0
 31
0.0
  0
LINE
  5
1D0
330
253
100
AcDbEntity
  8
DATA
  6
Continuous
 62
     7
100
AcDbLine
 10
84.09000000000004
 20
112.5
 30
0.0
 11
93.09000000000001
 21
112.5
 31
0.0
  0
LINE
  5
1D1
330
253
100
AcDbEntity
  8
DATA
  6
Continuous
 62
     7
100
AcDbLine
 10
80.09000000000003
 20
108.5
 30
0.0
 11
84.09000000000004
 21
108.5
 31
0.0
  0
LINE
  5
1D2
330
253
100
AcDbEntity
  8
DATA
  6
Continuous
 62
     7
100
AcDbLine
 10
93.09000000000001
 20
108.5
 30
0.0
 11
97.09000000000001
 21
108.5
 31
0.0
  0
LINE
  5
1D3
330
253
100
AcDbEntity
  8
DATA
  6
Continuous
 62
     7
100
AcDbLine
 10
93.09000000000001
 20
112.5
 30
0.0
 11
93.09000000000001
 21
108.5
 31
0.0
  0
LINE
  5
1D4
330
253
100
AcDbEntity
  8
DATA
  6
Continuous
 62
     7
100
AcDbLine
 10
84.09000000000004
 20
112.5
 30
0.0
 11
84.09000000000004
 21
108.5
 31
0.0
  0
LINE
  5
1D5
330
253
100
AcDbEntity
  8
DATA
  6
Continuous
 62
     7
100
AcDbLine
 10
84.09000000000004
 20
110.6238699383423
 30
0.0
 11
93.09000000000001
 21
110.6238699383423
 31
0.0
  0
LINE
  5
1D6
330
253
100
AcDbEntity
  8
DATA
  6
Continuous
 62
     7
100
AcDbLine
 10
84.09000000000004
 20
100.0
 30
0.0
 11
84.09000000000004
 21
104.9478208926685
 31
0.0
  0
LINE
  5
1D7
330
253
100
AcDbEntity
  8
DATA
  6
Continuous
 62
     7
100
AcDbLine
 10
93.09000000000001
 20
104.9478208926685
 30
0.0
 11
93.09000000000001
 21
100.0
 31
0.0
  0
LINE
  5
1D8
330
253
100
AcDbEntity
  8
DATA
  6
Continuous
 62
     7
100
AcDbLine
 10
84.09000000000004
 20
104.9478208926685
 30
0.0
 11
93.09000000000001
 21
104.9478208926685
 31
0.0
  0
LINE
  5
1D9
330
253
100
AcDbEntity
  8
DATA
  6
Continuous
 62
     7
100
AcDbLine
 10
263.5
 20
-139.698302852942
 30
0.0
 11
375.0
 21
-139.698302852942
 31
0.0
  0
LINE
  5
1DA
330
253
100
AcDbEntity
  8
DATA
  6
Continuous
 62
     7
100
AcDbLine
 10
263.5
 20
-143.698302852942
 30
0.0
 11
375.0
 21
-143.698302852942
 31
0.0
  0
LINE
  5
1DB
330
253
100
AcDbEntity
  8
DATA
  6
Continuous
 62
     7
100
AcDbLine
 10
112.5
 20
-162.5
 30
0.0
 11
112.5
 21
-121.0
 31
0.0
  0
LINE
  5
1DC
330
253
100
AcDbEntity
  8
DATA
  6
Continuous
 62
     7
100
AcDbLine
 10
112.5
 20
100.0
 30
0.0
 11
112.5
 21
-25.0
 31
0.0
  0
LINE
  5
1DD
330
253
100
AcDbEntity
  8
DATA
  6
Continuous
 62
     7
100
AcDbLine
 10
-87.50000000000001
 20
100.0
 30
0.0
 11
112.5
 21
100.0
 31
0.0
  0
CIRCLE
  5
1DE
330
253
100
AcDbEntity
  8
DATA
  6
Continuous
 62
     7
100
AcDbCircle
 10
-35.50000000000001
 20
227.99999999982
 30
0.0
 40
5.0
  0
CIRCLE
  5
1DF
330
253
100
AcDbEntity
  8
DATA
  6
Continuous
 62
     7
100
AcDbCircle
 10
4.499999999999985
 20
227.99999999982
 30
0.0
 40
5.0
  0
CIRCLE
  5
1E0
330
253
100
AcDbEntity
  8
DATA
  6
Continuous
 62
     7
100
AcDbCircle
 10
-35.50000000000001
 20
227.99999999982
 30
0.0
 40
3.199999999999988
  0
CIRCLE
  5
1E1
330
253
100
AcDbEntity
  8
DATA
  6
Continuous
 62
     7
100
AcDbCircle
 10
4.499999999999985
 20
227.99999999982
 30
0.0
 40
3.199999999999988
  0
LINE
  5
1E2
330
253
100
AcDbEntity
  8
DATA
  6
Continuous
 62
     7
100
AcDbLine
 10
-42.00000000000001
 20
-11.80000000000001
 30
0.0
 11
-42.00000000000001
 21
100.0
 31
0.0
  0
LINE
  5
1E3
330
253
100
AcDbEntity
  8
DATA
  6
Continuous
 62
     7
100
AcDbLine
 10
-43.00000000000002
 20
-11.80000000000001
 30
0.0
 11
-43.00000000000002
 21
100.0
 31
0.0
  0
LINE
  5
1E4
330
253
100
AcDbEntity
  8
DATA
  6
Continuous
 62
     7
100
AcDbLine
 10
66.99999999999999
 20
-11.80000000000001
 30
0.0
 11
66.99999999999999
 21
100.0
 31
0.0
  0
LINE
  5
1E5
330
253
100
AcDbEntity
  8
DATA
  6
Continuous
 62
     7
100
AcDbLine
 10
67.99999999999998
 20
-11.80000000000001
 30
0.0
 11
67.99999999999998
 21
100.0
 31
0.0
  0
ARC
  5
1E6
330
253
100
AcDbEntity
  8
DATA
  6
Continuous
 62
     7
100
AcDbCircle
 10
111.0
 20
-121.0
 30
0.0
 40
1.5
100
AcDbArc
 50
0.0
 51
90.0
  0
ENDSEC
  0
SECTION
  2
OBJECTS
  0
DICTIONARY
  5
1F4
330
0
100
AcDbDictionary
281
     1
  3
ACAD_CIP_PREVIOUS_PRODUCT_INFO
350
26C
  3
ACAD_COLOR
350
24A
  3
ACAD_GROUP
350
1F5
  3
ACAD_LAYOUT
350
249
  3
ACAD_MATERIAL
350
1F8
  3
ACAD_MLEADERSTYLE
350
24D
  3
ACAD_MLINESTYLE
350
246
  3
ACAD_PLOTSETTINGS
350
248
  3
ACAD_PLOTSTYLENAME
350
1F6
  3
ACAD_SCALELIST
350
22A
  3
ACAD_TABLESTYLE
350
24B
  3
ACAD_VISUALSTYLE
350
211
  3
ACDB_RECOMPOSE_DATA
350
3C4
  3
AcDbVariableDictionary
350
3B9
  3
DWGPROPS
350
3C5
  0
DICTIONARY
  5
3B5
330
30
100
AcDbDictionary
280
     1
281
     1
  3
AcDbContextDataManager
360
3B6
  0
DICTIONARY
  5
3B1
330
34
100
AcDbDictionary
280
     1
281
     1
  3
AcDbContextDataManager
360
3B2
  0
DICTIONARY
  5
3AD
330
36
100
AcDbDictionary
280
     1
281
     1
  3
AcDbContextDataManager
360
3AE
  0
DICTIONARY
  5
3A9
330
37
100
AcDbDictionary
280
     1
281
     1
  3
AcDbContextDataManager
360
3AA
  0
DICTIONARY
  5
3A5
330
39
100
AcDbDictionary
280
     1
281
     1
  3
AcDbContextDataManager
360
3A6
  0
DICTIONARY
  5
3A1
330
3A
100
AcDbDictionary
280
     1
281
     1
  3
AcDbContextDataManager
360
3A2
  0
DICTIONARY
  5
39D
330
3B
100
AcDbDictionary
280
     1
281
     1
  3
AcDbContextDataManager
360
39E
  0
DICTIONARY
  5
399
330
3C
100
AcDbDictionary
280
     1
281
     1
  3
AcDbContextDataManager
360
39A
  0
DICTIONARY
  5
395
330
3D
100
AcDbDictionary
280
     1
281
     1
  3
AcDbContextDataManager
360
396
  0
DICTIONARY
  5
391
330
3E
100
AcDbDictionary
280
     1
281
     1
  3
AcDbContextDataManager
360
392
  0
DICTIONARY
  5
38D
330
40
100
AcDbDictionary
280
     1
281
     1
  3
AcDbContextDataManager
360
38E
  0
DICTIONARY
  5
389
330
46
100
AcDbDictionary
280
     1
281
     1
  3
AcDbContextDataManager
360
38A
  0
DICTIONARY
  5
385
330
47
100
AcDbDictionary
280
     1
281
     1
  3
AcDbContextDataManager
360
386
  0
DICTIONARY
  5
381
330
48
100
AcDbDictionary
280
     1
281
     1
  3
AcDbContextDataManager
360
382
  0
DICTIONARY
  5
37D
330
49
100
AcDbDictionary
280
     1
281
     1
  3
AcDbContextDataManager
360
37E
  0
DICTIONARY
  5
379
330
4A
100
AcDbDictionary
280
     1
281
     1
  3
AcDbContextDataManager
360
37A
  0
DICTIONARY
  5
375
330
56
100
AcDbDictionary
280
     1
281
     1
  3
AcDbContextDataManager
360
376
  0
DICTIONARY
  5
371
330
58
100
AcDbDictionary
280
     1
281
     1
  3
AcDbContextDataManager
360
372
  0
DICTIONARY
  5
36D
330
5B
100
AcDbDictionary
280
     1
281
     1
  3
AcDbContextDataManager
360
36E
  0
DICTIONARY
  5
369
330
5C
100
AcDbDictionary
280
     1
281
     1
  3
AcDbContextDataManager
360
36A
  0
DICTIONARY
  5
365
330
5D
100
AcDbDictionary
280
     1
281
     1
  3
AcDbContextDataManager
360
366
  0
DICTIONARY
  5
361
330
5E
100
AcDbDictionary
280
     1
281
     1
  3
AcDbContextDataManager
360
362
  0
DICTIONARY
  5
35D
330
5F
100
AcDbDictionary
280
     1
281
     1
  3
AcDbContextDataManager
360
35E
  0
DICTIONARY
  5
359
330
60
100
AcDbDictionary
280
     1
281
     1
  3
AcDbContextDataManager
360
35A
  0
DICTIONARY
  5
355
330
61
100
AcDbDictionary
280
     1
281
     1
  3
AcDbContextDataManager
360
356
  0
DICTIONARY
  5
351
330
62
100
AcDbDictionary
280
     1
281
     1
  3
AcDbContextDataManager
360
352
  0
DICTIONARY
  5
34D
330
63
100
AcDbDictionary
280
     1
281
     1
  3
AcDbContextDataManager
360
34E
  0
DICTIONARY
  5
349
330
64
100
AcDbDictionary
280
     1
281
     1
  3
AcDbContextDataManager
360
34A
  0
DICTIONARY
  5
345
330
65
100
AcDbDictionary
280
     1
281
     1
  3
AcDbContextDataManager
360
346
  0
DICTIONARY
  5
341
330
66
100
AcDbDictionary
280
     1
281
     1
  3
AcDbContextDataManager
360
342
  0
DICTIONARY
  5
33D
330
67
100
AcDbDictionary
280
     1
281
     1
  3
AcDbContextDataManager
360
33E
  0
DICTIONARY
  5
339
330
68
100
AcDbDictionary
280
     1
281
     1
  3
AcDbContextDataManager
360
33A
  0
DICTIONARY
  5
335
330
69
100
AcDbDictionary
280
     1
281
     1
  3
AcDbContextDataManager
360
336
  0
DICTIONARY
  5
331
330
6A
100
AcDbDictionary
280
     1
281
     1
  3
AcDbContextDataManager
360
332
  0
DICTIONARY
  5
32D
330
6B
100
AcDbDictionary
280
     1
281
     1
  3
AcDbContextDataManager
360
32E
  0
DICTIONARY
  5
329
330
6C
100
AcDbDictionary
280
     1
281
     1
  3
AcDbContextDataManager
360
32A
  0
DICTIONARY
  5
325
330
6D
100
AcDbDictionary
280
     1
281
     1
  3
AcDbContextDataManager
360
326
  0
DICTIONARY
  5
321
330
6E
100
AcDbDictionary
280
     1
281
     1
  3
AcDbContextDataManager
360
322
  0
DICTIONARY
  5
31D
330
6F
100
AcDbDictionary
280
     1
281
     1
  3
AcDbContextDataManager
360
31E
  0
DICTIONARY
  5
319
330
75
100
AcDbDictionary
280
     1
281
     1
  3
AcDbContextDataManager
360
31A
  0
DICTIONARY
  5
315
330
76
100
AcDbDictionary
280
     1
281
     1
  3
AcDbContextDataManager
360
316
  0
DICTIONARY
  5
311
330
77
100
AcDbDictionary
280
     1
281
     1
  3
AcDbContextDataManager
360
312
  0
DICTIONARY
  5
30D
330
78
100
AcDbDictionary
280
     1
281
     1
  3
AcDbContextDataManager
360
30E
  0
DICTIONARY
  5
309
330
79
100
AcDbDictionary
280
     1
281
     1
  3
AcDbContextDataManager
360
30A
  0
DICTIONARY
  5
305
330
7A
100
AcDbDictionary
280
     1
281
     1
  3
AcDbContextDataManager
360
306
  0
DICTIONARY
  5
301
330
7B
100
AcDbDictionary
280
     1
281
     1
  3
AcDbContextDataManager
360
302
  0
DICTIONARY
  5
2FD
330
7C
100
AcDbDictionary
280
     1
281
     1
  3
AcDbContextDataManager
360
2FE
  0
DICTIONARY
  5
2F9
330
7D
100
AcDbDictionary
280
     1
281
     1
  3
AcDbContextDataManager
360
2FA
  0
DICTIONARY
  5
2F5
330
7E
100
AcDbDictionary
280
     1
281
     1
  3
AcDbContextDataManager
360
2F6
  0
DICTIONARY
  5
2F1
330
7F
100
AcDbDictionary
280
     1
281
     1
  3
AcDbContextDataManager
360
2F2
  0
DICTIONARY
  5
2ED
330
80
100
AcDbDictionary
280
     1
281
     1
  3
AcDbContextDataManager
360
2EE
  0
DICTIONARY
  5
2E9
330
81
100
AcDbDictionary
280
     1
281
     1
  3
AcDbContextDataManager
360
2EA
  0
DICTIONARY
  5
2E5
330
82
100
AcDbDictionary
280
     1
281
     1
  3
AcDbContextDataManager
360
2E6
  0
DICTIONARY
  5
2E1
330
88
100
AcDbDictionary
280
     1
281
     1
  3
AcDbContextDataManager
360
2E2
  0
DICTIONARY
  5
2DD
330
90
100
AcDbDictionary
280
     1
281
     1
  3
AcDbContextDataManager
360
2DE
  0
DICTIONARY
  5
2D9
330
9A
100
AcDbDictionary
280
     1
281
     1
  3
AcDbContextDataManager
360
2DA
  0
DICTIONARY
  5
2D5
330
A2
100
AcDbDictionary
280
     1
281
     1
  3
AcDbContextDataManager
360
2D6
  0
DICTIONARY
  5
2D1
330
AC
100
AcDbDictionary
280
     1
281
     1
  3
AcDbContextDataManager
360
2D2
  0
DICTIONARY
  5
2CD
330
B6
100
AcDbDictionary
280
     1
281
     1
  3
AcDbContextDataManager
360
2CE
  0
DICTIONARY
  5
2C9
330
BE
100
AcDbDictionary
280
     1
281
     1
  3
AcDbContextDataManager
360
2CA
  0
DICTIONARY
  5
2C5
330
BF
100
AcDbDictionary
280
     1
281
     1
  3
AcDbContextDataManager
360
2C6
  0
DICTIONARY
  5
2C1
330
C0
100
AcDbDictionary
280
     1
281
     1
  3
AcDbContextDataManager
360
2C2
  0
DICTIONARY
  5
2BD
330
C1
100
AcDbDictionary
280
     1
281
     1
  3
AcDbContextDataManager
360
2BE
  0
DICTIONARY
  5
2B9
330
C2
100
AcDbDictionary
280
     1
281
     1
  3
AcDbContextDataManager
360
2BA
  0
DICTIONARY
  5
2B5
330
E3
100
AcDbDictionary
280
     1
281
     1
  3
AcDbContextDataManager
360
2B6
  0
DICTIONARY
  5
2B1
330
E4
100
AcDbDictionary
280
     1
281
     1
  3
AcDbContextDataManager
360
2B2
  0
DICTIONARY
  5
2AD
330
E5
100
AcDbDictionary
280
     1
281
     1
  3
AcDbContextDataManager
360
2AE
  0
DICTIONARY
  5
2A9
330
E6
100
AcDbDictionary
280
     1
281
     1
  3
AcDbContextDataManager
360
2AA
  0
DICTIONARY
  5
2A5
330
E7
100
AcDbDictionary
280
     1
281
     1
  3
AcDbContextDataManager
360
2A6
  0
DICTIONARY
  5
2A1
330
FD
100
AcDbDictionary
280
     1
281
     1
  3
AcDbContextDataManager
360
2A2
  0
DICTIONARY
  5
29D
330
FE
100
AcDbDictionary
280
     1
281
     1
  3
AcDbContextDataManager
360
29E
  0
DICTIONARY
  5
299
330
FF
100
AcDbDictionary
280
     1
281
     1
  3
AcDbContextDataManager
360
29A
  0
DICTIONARY
  5
295
330
100
100
AcDbDictionary
280
     1
281
     1
  3
AcDbContextDataManager
360
296
  0
DICTIONARY
  5
291
330
101
100
AcDbDictionary
280
     1
281
     1
  3
AcDbContextDataManager
360
292
  0
DICTIONARY
  5
28D
330
123
100
AcDbDictionary
280
     1
281
     1
  3
AcDbContextDataManager
360
28E
  0
DICTIONARY
  5
289
330
159
100
AcDbDictionary
280
     1
281
     1
  3
AcDbContextDataManager
360
28A
  0
DICTIONARY
  5
285
330
15A
100
AcDbDictionary
280
     1
281
     1
  3
AcDbContextDataManager
360
286
  0
DICTIONARY
  5
281
330
164
100
AcDbDictionary
280
     1
281
     1
  3
AcDbContextDataManager
360
282
  0
DICTIONARY
  5
27D
330
170
100
AcDbDictionary
280
     1
281
     1
  3
AcDbContextDataManager
360
27E
  0
DICTIONARY
  5
279
330
186
100
AcDbDictionary
280
     1
281
     1
  3
AcDbContextDataManager
360
27A
  0
DICTIONARY
  5
275
330
187
100
AcDbDictionary
280
     1
281
     1
  3
AcDbContextDataManager
360
276
  0
DICTIONARY
  5
271
330
188
100
AcDbDictionary
280
     1
281
     1
  3
AcDbContextDataManager
360
272
  0
DICTIONARY
  5
26D
330
18C
100
AcDbDictionary
280
     1
281
     1
  3
AcDbContextDataManager
360
26E
  0
XRECORD
  5
26C
102
{ACAD_REACTORS
330
1F4
102
}
330
1F4
100
AcDbXrecord
280
     1
300
ACDLT
300
2012
300
ACDLT_F_S
  0
DICTIONARY
  5
24A
102
{ACAD_REACTORS
330
1F4
102
}
330
1F4
100
AcDbDictionary
281
     1
  0
DICTIONARY
  5
1F5
102
{ACAD_REACTORS
330
1F4
102
}
330
1F4
100
AcDbDictionary
281
     1
  0
DICTIONARY
  5
249
102
{ACAD_REACTORS
330
1F4
102
}
330
1F4
100
AcDbDictionary
281
     1
  3
Model
350
256
  3
レイアウト1
350
252
  0
DICTIONARY
  5
1F8
102
{ACAD_REACTORS
330
1F4
102
}
330
1F4
100
AcDbDictionary
281
     1
  3
ByBlock
350
201
  3
ByLayer
350
1F9
  3
Global
350
209
  0
DICTIONARY
  5
24D
102
{ACAD_REACTORS
330
1F4
102
}
330
1F4
100
AcDbDictionary
281
     1
  3
Standard
350
24E
  0
DICTIONARY
  5
246
102
{ACAD_REACTORS
330
1F4
102
}
330
1F4
100
AcDbDictionary
281
     1
  3
Standard
350
247
  0
DICTIONARY
  5
248
102
{ACAD_REACTORS
330
1F4
102
}
330
1F4
100
AcDbDictionary
281
     1
  0
ACDBDICTIONARYWDFLT
  5
1F6
102
{ACAD_REACTORS
330
1F4
102
}
330
1F4
100
AcDbDictionary
281
     1
  3
Normal
350
1F7
100
AcDbDictionaryWithDefault
340
1F7
  0
DICTIONARY
  5
22A
102
{ACAD_REACTORS
330
1F4
102
}
330
1F4
100
AcDbDictionary
281
     1
  3
A0
350
22B
  3
A1
350
22C
  3
A2
350
22D
  3
A3
350
22E
  3
A4
350
22F
  3
A5
350
230
  3
A6
350
231
  3
A7
350
232
  3
A8
350
233
  3
A9
350
234
  3
B0
350
235
  3
B1
350
236
  3
B2
350
237
  3
B3
350
238
  3
B4
350
239
  3
B5
350
23A
  3
B6
350
23B
  0
DICTIONARY
  5
24B
102
{ACAD_REACTORS
330
1F4
102
}
330
1F4
100
AcDbDictionary
281
     1
  3
Standard
350
24C
  0
DICTIONARY
  5
211
102
{ACAD_REACTORS
330
1F4
102
}
330
1F4
100
AcDbDictionary
281
     1
  3
2dWireframe
350
217
  3
Basic
350
216
  3
Brighten
350
21D
  3
ColorChange
350
221
  3
Conceptual
350
21A
  3
Dim
350
21C
  3
EdgeColorOff
350
229
  3
Facepattern
350
220
  3
Flat
350
212
  3
FlatWithEdges
350
213
  3
Gouraud
350
214
  3
GouraudWithEdges
350
215
  3
Hidden
350
219
  3
JitterOff
350
227
  3
Linepattern
350
21F
  3
OverhangOff
350
228
  3
Realistic
350
21B
  3
Shaded
350
226
  3
Shaded with edges
350
225
  3
Shades of Gray
350
222
  3
Sketchy
350
223
  3
Thicken
350
21E
  3
Wireframe
350
218
  3
X-Ray
350
224
  0
XRECORD
  5
3C4
102
{ACAD_REACTORS
330
1F4
102
}
330
1F4
100
AcDbXrecord
280
     1
 90
        1
330
24C
  0
DICTIONARY
  5
3B9
102
{ACAD_REACTORS
330
1F4
102
}
330
1F4
100
AcDbDictionary
281
     1
  3
CANNOSCALE
350
3BC
  3
CMLEADERSTYLE
350
3BB
  3
CTABLESTYLE
350
3BA
  3
DIMASSOC
350
3BF
  3
INDEXCTL
350
3BE
  3
SORTENTS
350
3BD
  3
XCLIPFRAME
350
3C0
  0
XRECORD
  5
3C5
102
{ACAD_REACTORS
330
1F4
102
}
330
1F4
100
AcDbXrecord
280
     1
  1
DWGPROPS COOKIE
  2

  3

  4

  6

  7

  8
sasaki_n
  9

300
=
301
=
302
=
303
=
304
=
305
=
306
=
307
=
308
=
309
=
 40
0.0005225115740741
 41
2456128.677835648
 42
2456128.683804028
  1

 90
        0
  0
DICTIONARY
  5
3B6
102
{ACAD_REACTORS
330
3B5
102
}
330
3B5
100
AcDbDictionary
281
     1
  3
ACDB_ANNOTATIONSCALES
350
3B7
  0
DICTIONARY
  5
3B2
102
{ACAD_REACTORS
330
3B1
102
}
330
3B1
100
AcDbDictionary
281
     1
  3
ACDB_ANNOTATIONSCALES
350
3B3
  0
DICTIONARY
  5
3AE
102
{ACAD_REACTORS
330
3AD
102
}
330
3AD
100
AcDbDictionary
281
     1
  3
ACDB_ANNOTATIONSCALES
350
3AF
  0
DICTIONARY
  5
3AA
102
{ACAD_REACTORS
330
3A9
102
}
330
3A9
100
AcDbDictionary
281
     1
  3
ACDB_ANNOTATIONSCALES
350
3AB
  0
DICTIONARY
  5
3A6
102
{ACAD_REACTORS
330
3A5
102
}
330
3A5
100
AcDbDictionary
281
     1
  3
ACDB_ANNOTATIONSCALES
350
3A7
  0
DICTIONARY
  5
3A2
102
{ACAD_REACTORS
330
3A1
102
}
330
3A1
100
AcDbDictionary
281
     1
  3
ACDB_ANNOTATIONSCALES
350
3A3
  0
DICTIONARY
  5
39E
102
{ACAD_REACTORS
330
39D
102
}
330
39D
100
AcDbDictionary
281
     1
  3
ACDB_ANNOTATIONSCALES
350
39F
  0
DICTIONARY
  5
39A
102
{ACAD_REACTORS
330
399
102
}
330
399
100
AcDbDictionary
281
     1
  3
ACDB_ANNOTATIONSCALES
350
39B
  0
DICTIONARY
  5
396
102
{ACAD_REACTORS
330
395
102
}
330
395
100
AcDbDictionary
281
     1
  3
ACDB_ANNOTATIONSCALES
350
397
  0
DICTIONARY
  5
392
102
{ACAD_REACTORS
330
391
102
}
330
391
100
AcDbDictionary
281
     1
  3
ACDB_ANNOTATIONSCALES
350
393
  0
DICTIONARY
  5
38E
102
{ACAD_REACTORS
330
38D
102
}
330
38D
100
AcDbDictionary
281
     1
  3
ACDB_ANNOTATIONSCALES
350
38F
  0
DICTIONARY
  5
38A
102
{ACAD_REACTORS
330
389
102
}
330
389
100
AcDbDictionary
281
     1
  3
ACDB_ANNOTATIONSCALES
350
38B
  0
DICTIONARY
  5
386
102
{ACAD_REACTORS
330
385
102
}
330
385
100
AcDbDictionary
281
     1
  3
ACDB_ANNOTATIONSCALES
350
387
  0
DICTIONARY
  5
382
102
{ACAD_REACTORS
330
381
102
}
330
381
100
AcDbDictionary
281
     1
  3
ACDB_ANNOTATIONSCALES
350
383
  0
DICTIONARY
  5
37E
102
{ACAD_REACTORS
330
37D
102
}
330
37D
100
AcDbDictionary
281
     1
  3
ACDB_ANNOTATIONSCALES
350
37F
  0
DICTIONARY
  5
37A
102
{ACAD_REACTORS
330
379
102
}
330
379
100
AcDbDictionary
281
     1
  3
ACDB_ANNOTATIONSCALES
350
37B
  0
DICTIONARY
  5
376
102
{ACAD_REACTORS
330
375
102
}
330
375
100
AcDbDictionary
281
     1
  3
ACDB_ANNOTATIONSCALES
350
377
  0
DICTIONARY
  5
372
102
{ACAD_REACTORS
330
371
102
}
330
371
100
AcDbDictionary
281
     1
  3
ACDB_ANNOTATIONSCALES
350
373
  0
DICTIONARY
  5
36E
102
{ACAD_REACTORS
330
36D
102
}
330
36D
100
AcDbDictionary
281
     1
  3
ACDB_ANNOTATIONSCALES
350
36F
  0
DICTIONARY
  5
36A
102
{ACAD_REACTORS
330
369
102
}
330
369
100
AcDbDictionary
281
     1
  3
ACDB_ANNOTATIONSCALES
350
36B
  0
DICTIONARY
  5
366
102
{ACAD_REACTORS
330
365
102
}
330
365
100
AcDbDictionary
281
     1
  3
ACDB_ANNOTATIONSCALES
350
367
  0
DICTIONARY
  5
362
102
{ACAD_REACTORS
330
361
102
}
330
361
100
AcDbDictionary
281
     1
  3
ACDB_ANNOTATIONSCALES
350
363
  0
DICTIONARY
  5
35E
102
{ACAD_REACTORS
330
35D
102
}
330
35D
100
AcDbDictionary
281
     1
  3
ACDB_ANNOTATIONSCALES
350
35F
  0
DICTIONARY
  5
35A
102
{ACAD_REACTORS
330
359
102
}
330
359
100
AcDbDictionary
281
     1
  3
ACDB_ANNOTATIONSCALES
350
35B
  0
DICTIONARY
  5
356
102
{ACAD_REACTORS
330
355
102
}
330
355
100
AcDbDictionary
281
     1
  3
ACDB_ANNOTATIONSCALES
350
357
  0
DICTIONARY
  5
352
102
{ACAD_REACTORS
330
351
102
}
330
351
100
AcDbDictionary
281
     1
  3
ACDB_ANNOTATIONSCALES
350
353
  0
DICTIONARY
  5
34E
102
{ACAD_REACTORS
330
34D
102
}
330
34D
100
AcDbDictionary
281
     1
  3
ACDB_ANNOTATIONSCALES
350
34F
  0
DICTIONARY
  5
34A
102
{ACAD_REACTORS
330
349
102
}
330
349
100
AcDbDictionary
281
     1
  3
ACDB_ANNOTATIONSCALES
350
34B
  0
DICTIONARY
  5
346
102
{ACAD_REACTORS
330
345
102
}
330
345
100
AcDbDictionary
281
     1
  3
ACDB_ANNOTATIONSCALES
350
347
  0
DICTIONARY
  5
342
102
{ACAD_REACTORS
330
341
102
}
330
341
100
AcDbDictionary
281
     1
  3
ACDB_ANNOTATIONSCALES
350
343
  0
DICTIONARY
  5
33E
102
{ACAD_REACTORS
330
33D
102
}
330
33D
100
AcDbDictionary
281
     1
  3
ACDB_ANNOTATIONSCALES
350
33F
  0
DICTIONARY
  5
33A
102
{ACAD_REACTORS
330
339
102
}
330
339
100
AcDbDictionary
281
     1
  3
ACDB_ANNOTATIONSCALES
350
33B
  0
DICTIONARY
  5
336
102
{ACAD_REACTORS
330
335
102
}
330
335
100
AcDbDictionary
281
     1
  3
ACDB_ANNOTATIONSCALES
350
337
  0
DICTIONARY
  5
332
102
{ACAD_REACTORS
330
331
102
}
330
331
100
AcDbDictionary
281
     1
  3
ACDB_ANNOTATIONSCALES
350
333
  0
DICTIONARY
  5
32E
102
{ACAD_REACTORS
330
32D
102
}
330
32D
100
AcDbDictionary
281
     1
  3
ACDB_ANNOTATIONSCALES
350
32F
  0
DICTIONARY
  5
32A
102
{ACAD_REACTORS
330
329
102
}
330
329
100
AcDbDictionary
281
     1
  3
ACDB_ANNOTATIONSCALES
350
32B
  0
DICTIONARY
  5
326
102
{ACAD_REACTORS
330
325
102
}
330
325
100
AcDbDictionary
281
     1
  3
ACDB_ANNOTATIONSCALES
350
327
  0
DICTIONARY
  5
322
102
{ACAD_REACTORS
330
321
102
}
330
321
100
AcDbDictionary
281
     1
  3
ACDB_ANNOTATIONSCALES
350
323
  0
DICTIONARY
  5
31E
102
{ACAD_REACTORS
330
31D
102
}
330
31D
100
AcDbDictionary
281
     1
  3
ACDB_ANNOTATIONSCALES
350
31F
  0
DICTIONARY
  5
31A
102
{ACAD_REACTORS
330
319
102
}
330
319
100
AcDbDictionary
281
     1
  3
ACDB_ANNOTATIONSCALES
350
31B
  0
DICTIONARY
  5
316
102
{ACAD_REACTORS
330
315
102
}
330
315
100
AcDbDictionary
281
     1
  3
ACDB_ANNOTATIONSCALES
350
317
  0
DICTIONARY
  5
312
102
{ACAD_REACTORS
330
311
102
}
330
311
100
AcDbDictionary
281
     1
  3
ACDB_ANNOTATIONSCALES
350
313
  0
DICTIONARY
  5
30E
102
{ACAD_REACTORS
330
30D
102
}
330
30D
100
AcDbDictionary
281
     1
  3
ACDB_ANNOTATIONSCALES
350
30F
  0
DICTIONARY
  5
30A
102
{ACAD_REACTORS
330
309
102
}
330
309
100
AcDbDictionary
281
     1
  3
ACDB_ANNOTATIONSCALES
350
30B
  0
DICTIONARY
  5
306
102
{ACAD_REACTORS
330
305
102
}
330
305
100
AcDbDictionary
281
     1
  3
ACDB_ANNOTATIONSCALES
350
307
  0
DICTIONARY
  5
302
102
{ACAD_REACTORS
330
301
102
}
330
301
100
AcDbDictionary
281
     1
  3
ACDB_ANNOTATIONSCALES
350
303
  0
DICTIONARY
  5
2FE
102
{ACAD_REACTORS
330
2FD
102
}
330
2FD
100
AcDbDictionary
281
     1
  3
ACDB_ANNOTATIONSCALES
350
2FF
  0
DICTIONARY
  5
2FA
102
{ACAD_REACTORS
330
2F9
102
}
330
2F9
100
AcDbDictionary
281
     1
  3
ACDB_ANNOTATIONSCALES
350
2FB
  0
DICTIONARY
  5
2F6
102
{ACAD_REACTORS
330
2F5
102
}
330
2F5
100
AcDbDictionary
281
     1
  3
ACDB_ANNOTATIONSCALES
350
2F7
  0
DICTIONARY
  5
2F2
102
{ACAD_REACTORS
330
2F1
102
}
330
2F1
100
AcDbDictionary
281
     1
  3
ACDB_ANNOTATIONSCALES
350
2F3
  0
DICTIONARY
  5
2EE
102
{ACAD_REACTORS
330
2ED
102
}
330
2ED
100
AcDbDictionary
281
     1
  3
ACDB_ANNOTATIONSCALES
350
2EF
  0
DICTIONARY
  5
2EA
102
{ACAD_REACTORS
330
2E9
102
}
330
2E9
100
AcDbDictionary
281
     1
  3
ACDB_ANNOTATIONSCALES
350
2EB
  0
DICTIONARY
  5
2E6
102
{ACAD_REACTORS
330
2E5
102
}
330
2E5
100
AcDbDictionary
281
     1
  3
ACDB_ANNOTATIONSCALES
350
2E7
  0
DICTIONARY
  5
2E2
102
{ACAD_REACTORS
330
2E1
102
}
330
2E1
100
AcDbDictionary
281
     1
  3
ACDB_ANNOTATIONSCALES
350
2E3
  0
DICTIONARY
  5
2DE
102
{ACAD_REACTORS
330
2DD
102
}
330
2DD
100
AcDbDictionary
281
     1
  3
ACDB_ANNOTATIONSCALES
350
2DF
  0
DICTIONARY
  5
2DA
102
{ACAD_REACTORS
330
2D9
102
}
330
2D9
100
AcDbDictionary
281
     1
  3
ACDB_ANNOTATIONSCALES
350
2DB
  0
DICTIONARY
  5
2D6
102
{ACAD_REACTORS
330
2D5
102
}
330
2D5
100
AcDbDictionary
281
     1
  3
ACDB_ANNOTATIONSCALES
350
2D7
  0
DICTIONARY
  5
2D2
102
{ACAD_REACTORS
330
2D1
102
}
330
2D1
100
AcDbDictionary
281
     1
  3
ACDB_ANNOTATIONSCALES
350
2D3
  0
DICTIONARY
  5
2CE
102
{ACAD_REACTORS
330
2CD
102
}
330
2CD
100
AcDbDictionary
281
     1
  3
ACDB_ANNOTATIONSCALES
350
2CF
  0
DICTIONARY
  5
2CA
102
{ACAD_REACTORS
330
2C9
102
}
330
2C9
100
AcDbDictionary
281
     1
  3
ACDB_ANNOTATIONSCALES
350
2CB
  0
DICTIONARY
  5
2C6
102
{ACAD_REACTORS
330
2C5
102
}
330
2C5
100
AcDbDictionary
281
     1
  3
ACDB_ANNOTATIONSCALES
350
2C7
  0
DICTIONARY
  5
2C2
102
{ACAD_REACTORS
330
2C1
102
}
330
2C1
100
AcDbDictionary
281
     1
  3
ACDB_ANNOTATIONSCALES
350
2C3
  0
DICTIONARY
  5
2BE
102
{ACAD_REACTORS
330
2BD
102
}
330
2BD
100
AcDbDictionary
281
     1
  3
ACDB_ANNOTATIONSCALES
350
2BF
  0
DICTIONARY
  5
2BA
102
{ACAD_REACTORS
330
2B9
102
}
330
2B9
100
AcDbDictionary
281
     1
  3
ACDB_ANNOTATIONSCALES
350
2BB
  0
DICTIONARY
  5
2B6
102
{ACAD_REACTORS
330
2B5
102
}
330
2B5
100
AcDbDictionary
281
     1
  3
ACDB_ANNOTATIONSCALES
350
2B7
  0
DICTIONARY
  5
2B2
102
{ACAD_REACTORS
330
2B1
102
}
330
2B1
100
AcDbDictionary
281
     1
  3
ACDB_ANNOTATIONSCALES
350
2B3
  0
DICTIONARY
  5
2AE
102
{ACAD_REACTORS
330
2AD
102
}
330
2AD
100
AcDbDictionary
281
     1
  3
ACDB_ANNOTATIONSCALES
350
2AF
  0
DICTIONARY
  5
2AA
102
{ACAD_REACTORS
330
2A9
102
}
330
2A9
100
AcDbDictionary
281
     1
  3
ACDB_ANNOTATIONSCALES
350
2AB
  0
DICTIONARY
  5
2A6
102
{ACAD_REACTORS
330
2A5
102
}
330
2A5
100
AcDbDictionary
281
     1
  3
ACDB_ANNOTATIONSCALES
350
2A7
  0
DICTIONARY
  5
2A2
102
{ACAD_REACTORS
330
2A1
102
}
330
2A1
100
AcDbDictionary
281
     1
  3
ACDB_ANNOTATIONSCALES
350
2A3
  0
DICTIONARY
  5
29E
102
{ACAD_REACTORS
330
29D
102
}
330
29D
100
AcDbDictionary
281
     1
  3
ACDB_ANNOTATIONSCALES
350
29F
  0
DICTIONARY
  5
29A
102
{ACAD_REACTORS
330
299
102
}
330
299
100
AcDbDictionary
281
     1
  3
ACDB_ANNOTATIONSCALES
350
29B
  0
DICTIONARY
  5
296
102
{ACAD_REACTORS
330
295
102
}
330
295
100
AcDbDictionary
281
     1
  3
ACDB_ANNOTATIONSCALES
350
297
  0
DICTIONARY
  5
292
102
{ACAD_REACTORS
330
291
102
}
330
291
100
AcDbDictionary
281
     1
  3
ACDB_ANNOTATIONSCALES
350
293
  0
DICTIONARY
  5
28E
102
{ACAD_REACTORS
330
28D
102
}
330
28D
100
AcDbDictionary
281
     1
  3
ACDB_ANNOTATIONSCALES
350
28F
  0
DICTIONARY
  5
28A
102
{ACAD_REACTORS
330
289
102
}
330
289
100
AcDbDictionary
281
     1
  3
ACDB_ANNOTATIONSCALES
350
28B
  0
DICTIONARY
  5
286
102
{ACAD_REACTORS
330
285
102
}
330
285
100
AcDbDictionary
281
     1
  3
ACDB_ANNOTATIONSCALES
350
287
  0
DICTIONARY
  5
282
102
{ACAD_REACTORS
330
281
102
}
330
281
100
AcDbDictionary
281
     1
  3
ACDB_ANNOTATIONSCALES
350
283
  0
DICTIONARY
  5
27E
102
{ACAD_REACTORS
330
27D
102
}
330
27D
100
AcDbDictionary
281
     1
  3
ACDB_ANNOTATIONSCALES
350
27F
  0
DICTIONARY
  5
27A
102
{ACAD_REACTORS
330
279
102
}
330
279
100
AcDbDictionary
281
     1
  3
ACDB_ANNOTATIONSCALES
350
27B
  0
DICTIONARY
  5
276
102
{ACAD_REACTORS
330
275
102
}
330
275
100
AcDbDictionary
281
     1
  3
ACDB_ANNOTATIONSCALES
350
277
  0
DICTIONARY
  5
272
102
{ACAD_REACTORS
330
271
102
}
330
271
100
AcDbDictionary
281
     1
  3
ACDB_ANNOTATIONSCALES
350
273
  0
DICTIONARY
  5
26E
102
{ACAD_REACTORS
330
26D
102
}
330
26D
100
AcDbDictionary
281
     1
  3
ACDB_ANNOTATIONSCALES
350
26F
  0
LAYOUT
  5
256
102
{ACAD_XDICTIONARY
360
3FD
102
}
102
{ACAD_REACTORS
330
249
102
}
330
249
100
AcDbPlotSettings
  1

  2
Microsoft XPS Document Writer
  4

  6

 40
0.0
 41
0.0
 42
0.0
 43
0.0
 44
0.0
 45
0.0
 46
0.0
 47
0.0
 48
0.0
 49
0.0
140
0.0
141
0.0
142
1.0
143
1.0
 70
  1712
 72
     0
 73
     0
 74
     0
  7

 75
     0
147
1.0
148
0.0
149
0.0
100
AcDbLayout
  1
Model
 70
     1
 71
     0
 10
0.0
 20
0.0
 11
12.0
 21
9.0
 12
0.0
 22
0.0
 32
0.0
 14
0.0
 24
0.0
 34
0.0
 15
0.0
 25
0.0
 35
0.0
146
0.0
 13
0.0
 23
0.0
 33
0.0
 16
1.0
 26
0.0
 36
0.0
 17
0.0
 27
1.0
 37
0.0
 76
     0
330
253
331
258
  0
LAYOUT
  5
252
102
{ACAD_XDICTIONARY
360
3FB
102
}
102
{ACAD_REACTORS
330
249
102
}
330
249
100
AcDbPlotSettings
  1

  2
Microsoft XPS Document Writer
  4

  6

 40
0.0
 41
0.0
 42
0.0
 43
0.0
 44
0.0
 45
0.0
 46
0.0
 47
0.0
 48
0.0
 49
0.0
140
0.0
141
0.0
142
1.0
143
1.0
 70
   688
 72
     0
 73
     0
 74
     5
  7

 75
    16
147
1.0
148
0.0
149
0.0
100
AcDbLayout
  1
レイアウト1
 70
     0
 71
     1
 10
0.0
 20
0.0
 11
12.0
 21
9.0
 12
0.0
 22
0.0
 32
0.0
 14
1.000000000000000E+20
 24
1.000000000000000E+20
 34
1.000000000000000E+20
 15
-1.000000000000000E+20
 25
-1.000000000000000E+20
 35
-1.000000000000000E+20
146
0.0
 13
0.0
 23
0.0
 33
0.0
 16
1.0
 26
0.0
 36
0.0
 17
0.0
 27
1.0
 37
0.0
 76
     0
330
24F
  0
MATERIAL
  5
201
102
{ACAD_XDICTIONARY
360
202
102
}
102
{ACAD_REACTORS
330
1F8
102
}
330
1F8
100
AcDbMaterial
  1
ByBlock
 72
     0
 43
0.0208333333333333
 43
0.0
 43
0.0
 43
0.0
 43
0.0
 43
0.0208333333333333
 43
0.0
 43
0.0
 43
0.0
 43
0.0
 43
1.0
 43
0.0
 43
0.0
 43
0.0
 43
0.0
 43
1.0
 77
     0
 47
0.0208333333333333
 47
0.0
 47
0.0
 47
0.0
 47
0.0
 47
0.0208333333333333
 47
0.0
 47
0.0
 47
0.0
 47
0.0
 47
1.0
 47
0.0
 47
0.0
 47
0.0
 47
0.0
 47
1.0
171
     0
 49
0.0208333333333333
 49
0.0
 49
0.0
 49
0.0
 49
0.0
 49
0.0208333333333333
 49
0.0
 49
0.0
 49
0.0
 49
0.0
 49
1.0
 49
0.0
 49
0.0
 49
0.0
 49
0.0
 49
1.0
175
     0
142
0.0208333333333333
142
0.0
142
0.0
142
0.0
142
0.0
142
0.0208333333333333
142
0.0
142
0.0
142
0.0
142
0.0
142
1.0
142
0.0
142
0.0
142
0.0
142
0.0
142
1.0
179
     0
144
0.0208333333333333
144
0.0
144
0.0
144
0.0
144
0.0
144
0.0208333333333333
144
0.0
144
0.0
144
0.0
144
0.0
144
1.0
144
0.0
144
0.0
144
0.0
144
0.0
144
1.0
147
0.0208333333333333
147
0.0
147
0.0
147
0.0
147
0.0
147
0.0208333333333333
147
0.0
147
0.0
147
0.0
147
0.0
147
1.0
147
0.0
147
0.0
147
0.0
147
0.0
147
1.0
  0
MATERIAL
  5
1F9
102
{ACAD_XDICTIONARY
360
1FA
102
}
102
{ACAD_REACTORS
330
1F8
102
}
330
1F8
100
AcDbMaterial
  1
ByLayer
 72
     0
 43
0.0208333333333333
 43
0.0
 43
0.0
 43
0.0
 43
0.0
 43
0.0208333333333333
 43
0.0
 43
0.0
 43
0.0
 43
0.0
 43
1.0
 43
0.0
 43
0.0
 43
0.0
 43
0.0
 43
1.0
 77
     0
 47
0.0208333333333333
 47
0.0
 47
0.0
 47
0.0
 47
0.0
 47
0.0208333333333333
 47
0.0
 47
0.0
 47
0.0
 47
0.0
 47
1.0
 47
0.0
 47
0.0
 47
0.0
 47
0.0
 47
1.0
171
     0
 49
0.0208333333333333
 49
0.0
 49
0.0
 49
0.0
 49
0.0
 49
0.0208333333333333
 49
0.0
 49
0.0
 49
0.0
 49
0.0
 49
1.0
 49
0.0
 49
0.0
 49
0.0
 49
0.0
 49
1.0
175
     0
142
0.0208333333333333
142
0.0
142
0.0
142
0.0
142
0.0
142
0.0208333333333333
142
0.0
142
0.0
142
0.0
142
0.0
142
1.0
142
0.0
142
0.0
142
0.0
142
0.0
142
1.0
179
     0
144
0.0208333333333333
144
0.0
144
0.0
144
0.0
144
0.0
144
0.0208333333333333
144
0.0
144
0.0
144
0.0
144
0.0
144
1.0
144
0.0
144
0.0
144
0.0
144
0.0
144
1.0
147
0.0208333333333333
147
0.0
147
0.0
147
0.0
147
0.0
147
0.0208333333333333
147
0.0
147
0.0
147
0.0
147
0.0
147
1.0
147
0.0
147
0.0
147
0.0
147
0.0
147
1.0
  0
MATERIAL
  5
209
102
{ACAD_XDICTIONARY
360
20A
102
}
102
{ACAD_REACTORS
330
1F8
102
}
330
1F8
100
AcDbMaterial
  1
Global
 72
     0
 43
0.0208333333333333
 43
0.0
 43
0.0
 43
0.0
 43
0.0
 43
0.0208333333333333
 43
0.0
 43
0.0
 43
0.0
 43
0.0
 43
1.0
 43
0.0
 43
0.0
 43
0.0
 43
0.0
 43
1.0
 77
     0
 47
0.0208333333333333
 47
0.0
 47
0.0
 47
0.0
 47
0.0
 47
0.0208333333333333
 47
0.0
 47
0.0
 47
0.0
 47
0.0
 47
1.0
 47
0.0
 47
0.0
 47
0.0
 47
0.0
 47
1.0
171
     0
 49
0.0208333333333333
 49
0.0
 49
0.0
 49
0.0
 49
0.0
 49
0.0208333333333333
 49
0.0
 49
0.0
 49
0.0
 49
0.0
 49
1.0
 49
0.0
 49
0.0
 49
0.0
 49
0.0
 49
1.0
175
     0
142
0.0208333333333333
142
0.0
142
0.0
142
0.0
142
0.0
142
0.0208333333333333
142
0.0
142
0.0
142
0.0
142
0.0
142
1.0
142
0.0
142
0.0
142
0.0
142
0.0
142
1.0
179
     0
144
0.0208333333333333
144
0.0
144
0.0
144
0.0
144
0.0
144
0.0208333333333333
144
0.0
144
0.0
144
0.0
144
0.0
144
1.0
144
0.0
144
0.0
144
0.0
144
0.0
144
1.0
147
0.0208333333333333
147
0.0
147
0.0
147
0.0
147
0.0
147
0.0208333333333333
147
0.0
147
0.0
147
0.0
147
0.0
147
1.0
147
0.0
147
0.0
147
0.0
147
0.0
147
1.0
  0
MLEADERSTYLE
  5
24E
102
{ACAD_REACTORS
330
24D
102
}
330
24D
100
AcDbMLeaderStyle
170
     2
171
     1
172
     0
 90
        2
 40
0.0
 41
0.0
173
     1
 91
-1056964608
340
242
 92
       -2
290
     1
 42
0.09
291
     1
 43
0.36
  3
Standard
 44
0.18
300

342
23D
174
     1
178
     6
175
     1
176
     0
 93
-1056964608
 45
0.18
292
     0
297
     0
 46
0.18
 94
-1056964608
 47
1.0
 49
1.0
140
1.0
293
     1
141
0.0
294
     1
177
     0
142
1.0
295
     0
296
     0
143
0.125
1001
ACAD_MLEADERVER
1070
     2
  0
MLINESTYLE
  5
247
102
{ACAD_REACTORS
330
246
102
}
330
246
100
AcDbMlineStyle
  2
STANDARD
 70
     0
  3

 62
   256
 51
90.0
 52
90.0
 71
     2
 49
0.5
 62
   256
  6
BYLAYER
 49
-0.5
 62
   256
  6
BYLAYER
  0
ACDBPLACEHOLDER
  5
1F7
102
{ACAD_REACTORS
330
1F6
102
}
330
1F6
  0
SCALE
  5
22B
102
{ACAD_REACTORS
330
22A
102
}
330
22A
100
AcDbScale
 70
     0
300
1:1
140
1.0
141
1.0
290
     1
  0
SCALE
  5
22C
102
{ACAD_REACTORS
330
22A
102
}
330
22A
100
AcDbScale
 70
     0
300
1/128" = 1'-0"
140
0.0078125
141
12.0
290
     0
  0
SCALE
  5
22D
102
{ACAD_REACTORS
330
22A
102
}
330
22A
100
AcDbScale
 70
     0
300
1/64" = 1'-0"
140
0.015625
141
12.0
290
     0
  0
SCALE
  5
22E
102
{ACAD_REACTORS
330
22A
102
}
330
22A
100
AcDbScale
 70
     0
300
1/32" = 1'-0"
140
0.03125
141
12.0
290
     0
  0
SCALE
  5
22F
102
{ACAD_REACTORS
330
22A
102
}
330
22A
100
AcDbScale
 70
     0
300
1/16" = 1'-0"
140
0.0625
141
12.0
290
     0
  0
SCALE
  5
230
102
{ACAD_REACTORS
330
22A
102
}
330
22A
100
AcDbScale
 70
     0
300
3/32" = 1'-0"
140
0.09375
141
12.0
290
     0
  0
SCALE
  5
231
102
{ACAD_REACTORS
330
22A
102
}
330
22A
100
AcDbScale
 70
     0
300
1/8" = 1'-0"
140
0.125
141
12.0
290
     0
  0
SCALE
  5
232
102
{ACAD_REACTORS
330
22A
102
}
330
22A
100
AcDbScale
 70
     0
300
3/16" = 1'-0"
140
0.1875
141
12.0
290
     0
  0
SCALE
  5
233
102
{ACAD_REACTORS
330
22A
102
}
330
22A
100
AcDbScale
 70
     0
300
1/4" = 1'-0"
140
0.25
141
12.0
290
     0
  0
SCALE
  5
234
102
{ACAD_REACTORS
330
22A
102
}
330
22A
100
AcDbScale
 70
     0
300
3/8" = 1'-0"
140
0.375
141
12.0
290
     0
  0
SCALE
  5
235
102
{ACAD_REACTORS
330
22A
102
}
330
22A
100
AcDbScale
 70
     0
300
1/2" = 1'-0"
140
0.5
141
12.0
290
     0
  0
SCALE
  5
236
102
{ACAD_REACTORS
330
22A
102
}
330
22A
100
AcDbScale
 70
     0
300
3/4" = 1'-0"
140
0.75
141
12.0
290
     0
  0
SCALE
  5
237
102
{ACAD_REACTORS
330
22A
102
}
330
22A
100
AcDbScale
 70
     0
300
1" = 1'-0"
140
1.0
141
12.0
290
     0
  0
SCALE
  5
238
102
{ACAD_REACTORS
330
22A
102
}
330
22A
100
AcDbScale
 70
     0
300
1-1/2" = 1'-0"
140
1.5
141
12.0
290
     0
  0
SCALE
  5
239
102
{ACAD_REACTORS
330
22A
102
}
330
22A
100
AcDbScale
 70
     0
300
3" = 1'-0"
140
3.0
141
12.0
290
     0
  0
SCALE
  5
23A
102
{ACAD_REACTORS
330
22A
102
}
330
22A
100
AcDbScale
 70
     0
300
6" = 1'-0"
140
6.0
141
12.0
290
     0
  0
SCALE
  5
23B
102
{ACAD_REACTORS
330
22A
102
}
330
22A
100
AcDbScale
 70
     0
300
1'-0" = 1'-0"
140
12.0
141
12.0
290
     0
  0
TABLESTYLE
  5
24C
102
{ACAD_XDICTIONARY
360
3C2
102
}
102
{ACAD_REACTORS
330
24B
102
}
330
24B
100
AcDbTableStyle
  3
Standard
 70
     0
 71
     0
 40
0.06
 41
0.06
280
     0
281
     0
  7
STANDARD
140
0.18
170
     2
 62
     0
 63
     7
283
     0
274
    -2
284
     1
 64
     0
275
    -2
285
     1
 65
     0
276
    -2
286
     1
 66
     0
277
    -2
287
     1
 67
     0
278
    -2
288
     1
 68
     0
279
    -2
289
     1
 69
     0
  7
STANDARD
140
0.25
170
     5
 62
     0
 63
     7
283
     0
274
    -2
284
     1
 64
     0
275
    -2
285
     1
 65
     0
276
    -2
286
     1
 66
     0
277
    -2
287
     1
 67
     0
278
    -2
288
     1
 68
     0
279
    -2
289
     1
 69
     0
  7
STANDARD
140
0.18
170
     5
 62
     0
 63
     7
283
     0
274
    -2
284
     1
 64
     0
275
    -2
285
     1
 65
     0
276
    -2
286
     1
 66
     0
277
    -2
287
     1
 67
     0
278
    -2
288
     1
 68
     0
279
    -2
289
     1
 69
     0
  0
VISUALSTYLE
  5
217
102
{ACAD_XDICTIONARY
360
3D3
102
}
102
{ACAD_REACTORS
330
211
102
}
330
211
100
AcDbVisualStyle
  2
2dWireframe
 70
     4
 71
     0
 72
     2
 73
     0
 90
        0
 40
-0.6
 41
-30.0
 62
     5
 63
     7
 74
     1
 91
        4
 64
     7
 65
   257
 75
     1
175
     1
 42
1.0
 92
        0
 66
   257
 43
1.0
 76
     1
 77
     6
 78
     2
 67
     7
 79
     5
170
     0
171
     0
290
     0
174
     0
 93
        1
 44
0.0
173
     0
291
     0
 45
0.0
1001
ACAD
1000
AcDbSavedByObjectVersion
1070
     0
  0
VISUALSTYLE
  5
216
102
{ACAD_XDICTIONARY
360
3D1
102
}
102
{ACAD_REACTORS
330
211
102
}
330
211
100
AcDbVisualStyle
  2
Basic
 70
     7
 71
     1
 72
     0
 73
     1
 90
        0
 40
-0.6
 41
-30.0
 62
     5
 63
     7
 74
     0
 91
        4
 64
     7
 65
   257
 75
     1
175
     1
 42
1.0
 92
        8
 66
     7
 43
1.0
 76
     1
 77
     6
 78
     2
 67
     7
 79
     5
170
     0
171
     0
290
     0
174
     0
 93
        1
 44
0.0
173
     0
291
     1
 45
0.0
1001
ACAD
1000
AcDbSavedByObjectVersion
1070
     0
  0
VISUALSTYLE
  5
21D
102
{ACAD_XDICTIONARY
360
3DF
102
}
102
{ACAD_REACTORS
330
211
102
}
330
211
100
AcDbVisualStyle
  2
Brighten
 70
    12
 71
     2
 72
     2
 73
     0
 90
        0
 40
-0.6
 41
-30.0
 62
     5
 63
     7
 74
     1
 91
        4
 64
     7
 65
   257
 75
     1
175
     1
 42
1.0
 92
        8
 66
     7
 43
1.0
 76
     1
 77
     6
 78
     2
 67
     7
 79
     5
170
     0
171
     0
290
     0
174
     0
 93
        1
 44
50.0
173
     0
291
     1
 45
0.0
1001
ACAD
1000
AcDbSavedByObjectVersion
1070
     0
  0
VISUALSTYLE
  5
221
102
{ACAD_XDICTIONARY
360
3E7
102
}
102
{ACAD_REACTORS
330
211
102
}
330
211
100
AcDbVisualStyle
  2
ColorChange
 70
    16
 71
     2
 72
     2
 73
     3
 90
        0
 40
-0.6
 41
-30.0
 62
     5
 63
     8
 74
     1
 91
        4
 64
     7
 65
   257
 75
     1
175
     1
 42
1.0
 92
        8
 66
     8
 43
1.0
 76
     1
 77
     6
 78
     2
 67
     7
 79
     5
170
     0
171
     0
290
     0
174
     0
 93
        1
 44
0.0
173
     0
291
     1
 45
0.0
1001
ACAD
1000
AcDbSavedByObjectVersion
1070
     0
  0
VISUALSTYLE
  5
21A
102
{ACAD_XDICTIONARY
360
3D9
102
}
102
{ACAD_REACTORS
330
211
102
}
330
211
100
AcDbVisualStyle
  2
Conceptual
 70
     9
 71
     3
 72
     2
 73
     0
 90
        0
 40
-0.6
 41
-30.0
 62
     5
 63
     7
 74
     2
 91
        2
 64
     7
 65
   257
 75
     1
175
     1
 42
179.0
 92
        8
 66
     7
 43
1.0
 76
     1
 77
     6
 78
     2
 67
     7
 79
     3
170
     0
171
     0
290
     0
174
     0
 93
        1
 44
0.0
173
     0
291
     0
 45
0.0
1001
ACAD
1000
AcDbSavedByObjectVersion
1070
     0
  0
VISUALSTYLE
  5
21C
102
{ACAD_XDICTIONARY
360
3DD
102
}
102
{ACAD_REACTORS
330
211
102
}
330
211
100
AcDbVisualStyle
  2
Dim
 70
    11
 71
     2
 72
     2
 73
     0
 90
        0
 40
-0.6
 41
-30.0
 62
     5
 63
     7
 74
     1
 91
        4
 64
     7
 65
   257
 75
     1
175
     1
 42
1.0
 92
        8
 66
     7
 43
1.0
 76
     1
 77
     6
 78
     2
 67
     7
 79
     5
170
     0
171
     0
290
     0
174
     0
 93
        1
 44
-50.0
173
     0
291
     1
 45
0.0
1001
ACAD
1000
AcDbSavedByObjectVersion
1070
     0
  0
VISUALSTYLE
  5
229
102
{ACAD_XDICTIONARY
360
3F7
102
}
102
{ACAD_REACTORS
330
211
102
}
330
211
100
AcDbVisualStyle
  2
EdgeColorOff
 70
    22
 71
     2
 72
     2
 73
     0
 90
        0
 40
-0.6
 41
-30.0
 62
     5
 63
     7
 74
     1
 91
        4
 64
     7
 65
   257
 75
     1
175
     1
 42
1.0
 92
        8
 66
     7
 43
1.0
 76
     1
 77
     6
 78
     2
 67
     7
 79
     5
170
     0
171
     0
290
     0
174
     0
 93
        1
 44
0.0
173
     0
291
     1
 45
0.0
1001
ACAD
1000
AcDbSavedByObjectVersion
1070
     0
  0
VISUALSTYLE
  5
220
102
{ACAD_XDICTIONARY
360
3E5
102
}
102
{ACAD_REACTORS
330
211
102
}
330
211
100
AcDbVisualStyle
  2
Facepattern
 70
    15
 71
     2
 72
     2
 73
     0
 90
        0
 40
-0.6
 41
-30.0
 62
     5
 63
     7
 74
     1
 91
        4
 64
     7
 65
   257
 75
     1
175
     1
 42
1.0
 92
        8
 66
     7
 43
1.0
 76
     1
 77
     6
 78
     2
 67
     7
 79
     5
170
     0
171
     0
290
     0
174
     0
 93
        1
 44
0.0
173
     0
291
     1
 45
0.0
1001
ACAD
1000
AcDbSavedByObjectVersion
1070
     0
  0
VISUALSTYLE
  5
212
102
{ACAD_XDICTIONARY
360
3C9
102
}
102
{ACAD_REACTORS
330
211
102
}
330
211
100
AcDbVisualStyle
  2
Flat
 70
     0
 71
     2
 72
     1
 73
     1
 90
        2
 40
-0.6
 41
30.0
 62
     5
 63
     7
 74
     0
 91
        0
 64
     7
 65
   257
 75
     1
175
     1
 42
1.0
 92
        8
 66
     7
 43
1.0
 76
     1
 77
     6
 78
     2
 67
     7
 79
     5
170
     0
171
     0
290
     0
174
     0
 93
       13
 44
0.0
173
     0
291
     1
 45
0.0
1001
ACAD
1000
AcDbSavedByObjectVersion
1070
     0
  0
VISUALSTYLE
  5
213
102
{ACAD_XDICTIONARY
360
3CB
102
}
102
{ACAD_REACTORS
330
211
102
}
330
211
100
AcDbVisualStyle
  2
FlatWithEdges
 70
     1
 71
     2
 72
     1
 73
     1
 90
        2
 40
-0.6
 41
30.0
 62
     5
 63
     7
 74
     1
 91
        0
 64
     7
 65
   257
 75
     1
175
     1
 42
1.0
 92
        0
 66
   257
 43
1.0
 76
     1
 77
     6
 78
     2
 67
     7
 79
     5
170
     0
171
     0
290
     0
174
     0
 93
       13
 44
0.0
173
     0
291
     1
 45
0.0
1001
ACAD
1000
AcDbSavedByObjectVersion
1070
     0
  0
VISUALSTYLE
  5
214
102
{ACAD_XDICTIONARY
360
3CD
102
}
102
{ACAD_REACTORS
330
211
102
}
330
211
100
AcDbVisualStyle
  2
Gouraud
 70
     2
 71
     2
 72
     2
 73
     1
 90
        2
 40
-0.6
 41
30.0
 62
     5
 63
     7
 74
     0
 91
        0
 64
     7
 65
   257
 75
     1
175
     1
 42
1.0
 92
        0
 66
     7
 43
1.0
 76
     1
 77
     6
 78
     2
 67
     7
 79
     5
170
     0
171
     0
290
     0
174
     0
 93
       13
 44
0.0
173
     0
291
     1
 45
0.0
1001
ACAD
1000
AcDbSavedByObjectVersion
1070
     0
  0
VISUALSTYLE
  5
215
102
{ACAD_XDICTIONARY
360
3CF
102
}
102
{ACAD_REACTORS
330
211
102
}
330
211
100
AcDbVisualStyle
  2
GouraudWithEdges
 70
     3
 71
     2
 72
     2
 73
     1
 90
        2
 40
-0.6
 41
30.0
 62
     5
 63
     7
 74
     1
 91
        0
 64
     7
 65
   257
 75
     1
175
     1
 42
1.0
 92
        0
 66
   257
 43
1.0
 76
     1
 77
     6
 78
     2
 67
     7
 79
     5
170
     0
171
     0
290
     0
174
     0
 93
       13
 44
0.0
173
     0
291
     1
 45
0.0
1001
ACAD
1000
AcDbSavedByObjectVersion
1070
     0
  0
VISUALSTYLE
  5
219
102
{ACAD_XDICTIONARY
360
3D7
102
}
102
{ACAD_REACTORS
330
211
102
}
330
211
100
AcDbVisualStyle
  2
Hidden
 70
     6
 71
     1
 72
     2
 73
     2
 90
        0
 40
-0.6
 41
-30.0
 62
     5
 63
     7
 74
     2
 91
        2
 64
     7
 65
   257
 75
     2
175
     1
 42
40.0
 92
        0
 66
   257
 43
1.0
 76
     1
 77
     6
 78
     2
 67
     7
 79
     3
170
     0
171
     0
290
     0
174
     0
 93
        1
 44
0.0
173
     0
291
     0
 45
0.0
1001
ACAD
1000
AcDbSavedByObjectVersion
1070
     0
  0
VISUALSTYLE
  5
227
102
{ACAD_XDICTIONARY
360
3F3
102
}
102
{ACAD_REACTORS
330
211
102
}
330
211
100
AcDbVisualStyle
  2
JitterOff
 70
    20
 71
     2
 72
     2
 73
     0
 90
        0
 40
-0.6
 41
-30.0
 62
     5
 63
     7
 74
     1
 91
        4
 64
     7
 65
   257
 75
     1
175
     1
 42
1.0
 92
       10
 66
     7
 43
1.0
 76
     1
 77
     6
 78
     2
 67
     7
 79
     5
170
     0
171
     0
290
     0
174
     0
 93
        1
 44
0.0
173
     0
291
     1
 45
0.0
1001
ACAD
1000
AcDbSavedByObjectVersion
1070
     0
  0
VISUALSTYLE
  5
21F
102
{ACAD_XDICTIONARY
360
3E3
102
}
102
{ACAD_REACTORS
330
211
102
}
330
211
100
AcDbVisualStyle
  2
Linepattern
 70
    14
 71
     2
 72
     2
 73
     0
 90
        0
 40
-0.6
 41
-30.0
 62
     5
 63
     7
 74
     1
 91
        4
 64
     7
 65
   257
 75
     7
175
     7
 42
1.0
 92
        8
 66
     7
 43
1.0
 76
     1
 77
     6
 78
     2
 67
     7
 79
     5
170
     0
171
     0
290
     0
174
     0
 93
        1
 44
0.0
173
     0
291
     1
 45
0.0
1001
ACAD
1000
AcDbSavedByObjectVersion
1070
     0
  0
VISUALSTYLE
  5
228
102
{ACAD_XDICTIONARY
360
3F5
102
}
102
{ACAD_REACTORS
330
211
102
}
330
211
100
AcDbVisualStyle
  2
OverhangOff
 70
    21
 71
     2
 72
     2
 73
     0
 90
        0
 40
-0.6
 41
-30.0
 62
     5
 63
     7
 74
     1
 91
        4
 64
     7
 65
   257
 75
     1
175
     1
 42
1.0
 92
        9
 66
     7
 43
1.0
 76
     1
 77
     6
 78
     2
 67
     7
 79
     5
170
     0
171
     0
290
     0
174
     0
 93
        1
 44
0.0
173
     0
291
     1
 45
0.0
1001
ACAD
1000
AcDbSavedByObjectVersion
1070
     0
  0
VISUALSTYLE
  5
21B
102
{ACAD_XDICTIONARY
360
3DB
102
}
102
{ACAD_REACTORS
330
211
102
}
330
211
100
AcDbVisualStyle
  2
Realistic
 70
     8
 71
     2
 72
     3
 73
     0
 90
        2
 40
-0.6
 41
30.0
 62
     5
 63
     7
 74
     0
 91
        0
 64
     7
 65
   257
 75
     1
175
     1
 42
1.0
 92
        8
 66
   257
 43
1.0
 76
     1
 77
     6
 78
     2
 67
     7
 79
     3
170
     0
171
     0
290
     0
174
     0
 93
       13
 44
0.0
173
     0
291
     0
 45
0.0
1001
ACAD
1000
AcDbSavedByObjectVersion
1070
     0
  0
VISUALSTYLE
  5
226
102
{ACAD_XDICTIONARY
360
3F1
102
}
102
{ACAD_REACTORS
330
211
102
}
330
211
100
AcDbVisualStyle
  2
Shaded
 70
    27
 71
     2
 72
     2
 73
     1
 90
        2
 40
-0.6
 41
30.0
 62
     5
 63
     7
 74
     0
 91
        4
 64
     7
 65
   257
 75
     1
175
     1
 42
1.0
 92
        8
 66
   257
 43
1.0
 76
     1
 77
     6
 78
     2
 67
     8
 79
     3
170
     0
171
     0
290
     0
174
     0
 93
        5
 44
0.0
173
     0
291
     0
 45
0.0
1001
ACAD
1000
AcDbSavedByObjectVersion
1070
     0
  0
VISUALSTYLE
  5
225
102
{ACAD_XDICTIONARY
360
3EF
102
}
102
{ACAD_REACTORS
330
211
102
}
330
211
100
AcDbVisualStyle
  2
Shaded with edges
 70
    26
 71
     2
 72
     2
 73
     1
 90
        2
 40
-0.6
 41
30.0
 62
     5
 63
     7
 74
     1
 91
       10
 64
     7
 65
   257
 75
     2
175
     1
 42
1.0
 92
        8
 66
   257
 43
1.0
 76
     1
 77
     6
 78
     2
 67
     7
 79
     3
170
     0
171
     0
290
     0
174
     0
 93
        5
 44
0.0
173
     0
291
     0
 45
0.0
1001
ACAD
1000
AcDbSavedByObjectVersion
1070
     0
  0
VISUALSTYLE
  5
222
102
{ACAD_XDICTIONARY
360
3E9
102
}
102
{ACAD_REACTORS
330
211
102
}
330
211
100
AcDbVisualStyle
  2
Shades of Gray
 70
    23
 71
     2
 72
     2
 73
     3
 90
        0
 40
-0.6
 41
-30.0
 62
     5
 63
     7
 74
     2
 91
        2
 64
     7
 65
     7
 75
     1
175
     1
 42
40.0
 92
        8
 66
     7
 43
1.0
 76
     1
 77
     6
 78
     2
 67
     7
 79
     3
170
     0
171
     0
290
     0
174
     0
 93
        1
 44
0.0
173
     0
291
     0
 45
0.0
1001
ACAD
1000
AcDbSavedByObjectVersion
1070
     0
  0
VISUALSTYLE
  5
223
102
{ACAD_XDICTIONARY
360
3EB
102
}
102
{ACAD_REACTORS
330
211
102
}
330
211
100
AcDbVisualStyle
  2
Sketchy
 70
    24
 71
     1
 72
     2
 73
     2
 90
        0
 40
-0.6
 41
-30.0
 62
     5
 63
     7
 74
     2
 91
        2
 64
     7
 65
     7
 75
     1
175
     1
 42
40.0
 92
       11
 66
     7
 43
1.0
 76
     1
 77
     6
 78
     2
 67
     7
 79
     6
170
     0
171
     0
290
     0
174
     0
 93
        1
 44
0.0
173
     0
291
     0
 45
0.0
1001
ACAD
1000
AcDbSavedByObjectVersion
1070
     0
  0
VISUALSTYLE
  5
21E
102
{ACAD_XDICTIONARY
360
3E1
102
}
102
{ACAD_REACTORS
330
211
102
}
330
211
100
AcDbVisualStyle
  2
Thicken
 70
    13
 71
     2
 72
     2
 73
     0
 90
        0
 40
-0.6
 41
-30.0
 62
     5
 63
     7
 74
     1
 91
        4
 64
     7
 65
   257
 75
     1
175
     1
 42
1.0
 92
       12
 66
     7
 43
1.0
 76
     1
 77
     6
 78
     2
 67
     7
 79
     5
170
     0
171
     0
290
     0
174
     0
 93
        1
 44
0.0
173
     0
291
     1
 45
0.0
1001
ACAD
1000
AcDbSavedByObjectVersion
1070
     0
  0
VISUALSTYLE
  5
218
102
{ACAD_XDICTIONARY
360
3D5
102
}
102
{ACAD_REACTORS
330
211
102
}
330
211
100
AcDbVisualStyle
  2
Wireframe
 70
     5
 71
     0
 72
     2
 73
     0
 90
        0
 40
-0.6
 41
-30.0
 62
     5
 63
     7
 74
     1
 91
        4
 64
     7
 65
   257
 75
     1
175
     1
 42
1.0
 92
        0
 66
   257
 43
1.0
 76
     1
 77
     6
 78
     2
 67
     7
 79
     3
170
     0
171
     0
290
     0
174
     0
 93
        1
 44
0.0
173
     0
291
     0
 45
0.0
1001
ACAD
1000
AcDbSavedByObjectVersion
1070
     0
  0
VISUALSTYLE
  5
224
102
{ACAD_XDICTIONARY
360
3ED
102
}
102
{ACAD_REACTORS
330
211
102
}
330
211
100
AcDbVisualStyle
  2
X-Ray
 70
    25
 71
     2
 72
     2
 73
     1
 90
        1
 40
0.5
 41
-30.0
 62
     5
 63
     7
 74
     1
 91
        0
 64
     7
 65
   257
 75
     1
175
     1
 42
1.0
 92
        8
 66
     7
 43
1.0
 76
     1
 77
     6
 78
     2
 67
     7
 79
     3
170
     0
171
     0
290
     0
174
     0
 93
       13
 44
0.0
173
     0
291
     0
 45
0.0
1001
ACAD
1000
AcDbSavedByObjectVersion
1070
     0
  0
DICTIONARYVAR
  5
3BC
102
{ACAD_REACTORS
330
3B9
102
}
330
3B9
100
DictionaryVariables
280
     0
  1
1:1
  0
DICTIONARYVAR
  5
3BB
102
{ACAD_REACTORS
330
3B9
102
}
330
3B9
100
DictionaryVariables
280
     0
  1
STANDARD
  0
DICTIONARYVAR
  5
3BA
102
{ACAD_REACTORS
330
3B9
102
}
330
3B9
100
DictionaryVariables
280
     0
  1
STANDARD
  0
DICTIONARYVAR
  5
3BF
102
{ACAD_REACTORS
330
3B9
102
}
330
3B9
100
DictionaryVariables
280
     0
  1
1
  0
DICTIONARYVAR
  5
3BE
102
{ACAD_REACTORS
330
3B9
102
}
330
3B9
100
DictionaryVariables
280
     0
  1
0
  0
DICTIONARYVAR
  5
3BD
102
{ACAD_REACTORS
330
3B9
102
}
330
3B9
100
DictionaryVariables
280
     0
  1
127
  0
DICTIONARYVAR
  5
3C0
102
{ACAD_REACTORS
330
3B9
102
}
330
3B9
100
DictionaryVariables
280
     0
  1
2
  0
DICTIONARY
  5
3B7
102
{ACAD_REACTORS
330
3B6
102
}
330
3B6
100
AcDbDictionary
281
     1
  0
DICTIONARY
  5
3B3
102
{ACAD_REACTORS
330
3B2
102
}
330
3B2
100
AcDbDictionary
281
     1
  0
DICTIONARY
  5
3AF
102
{ACAD_REACTORS
330
3AE
102
}
330
3AE
100
AcDbDictionary
281
     1
  0
DICTIONARY
  5
3AB
102
{ACAD_REACTORS
330
3AA
102
}
330
3AA
100
AcDbDictionary
281
     1
  0
DICTIONARY
  5
3A7
102
{ACAD_REACTORS
330
3A6
102
}
330
3A6
100
AcDbDictionary
281
     1
  0
DICTIONARY
  5
3A3
102
{ACAD_REACTORS
330
3A2
102
}
330
3A2
100
AcDbDictionary
281
     1
  0
DICTIONARY
  5
39F
102
{ACAD_REACTORS
330
39E
102
}
330
39E
100
AcDbDictionary
281
     1
  0
DICTIONARY
  5
39B
102
{ACAD_REACTORS
330
39A
102
}
330
39A
100
AcDbDictionary
281
     1
  0
DICTIONARY
  5
397
102
{ACAD_REACTORS
330
396
102
}
330
396
100
AcDbDictionary
281
     1
  0
DICTIONARY
  5
393
102
{ACAD_REACTORS
330
392
102
}
330
392
100
AcDbDictionary
281
     1
  0
DICTIONARY
  5
38F
102
{ACAD_REACTORS
330
38E
102
}
330
38E
100
AcDbDictionary
281
     1
  0
DICTIONARY
  5
38B
102
{ACAD_REACTORS
330
38A
102
}
330
38A
100
AcDbDictionary
281
     1
  0
DICTIONARY
  5
387
102
{ACAD_REACTORS
330
386
102
}
330
386
100
AcDbDictionary
281
     1
  0
DICTIONARY
  5
383
102
{ACAD_REACTORS
330
382
102
}
330
382
100
AcDbDictionary
281
     1
  0
DICTIONARY
  5
37F
102
{ACAD_REACTORS
330
37E
102
}
330
37E
100
AcDbDictionary
281
     1
  0
DICTIONARY
  5
37B
102
{ACAD_REACTORS
330
37A
102
}
330
37A
100
AcDbDictionary
281
     1
  0
DICTIONARY
  5
377
102
{ACAD_REACTORS
330
376
102
}
330
376
100
AcDbDictionary
281
     1
  0
DICTIONARY
  5
373
102
{ACAD_REACTORS
330
372
102
}
330
372
100
AcDbDictionary
281
     1
  0
DICTIONARY
  5
36F
102
{ACAD_REACTORS
330
36E
102
}
330
36E
100
AcDbDictionary
281
     1
  0
DICTIONARY
  5
36B
102
{ACAD_REACTORS
330
36A
102
}
330
36A
100
AcDbDictionary
281
     1
  0
DICTIONARY
  5
367
102
{ACAD_REACTORS
330
366
102
}
330
366
100
AcDbDictionary
281
     1
  0
DICTIONARY
  5
363
102
{ACAD_REACTORS
330
362
102
}
330
362
100
AcDbDictionary
281
     1
  0
DICTIONARY
  5
35F
102
{ACAD_REACTORS
330
35E
102
}
330
35E
100
AcDbDictionary
281
     1
  0
DICTIONARY
  5
35B
102
{ACAD_REACTORS
330
35A
102
}
330
35A
100
AcDbDictionary
281
     1
  0
DICTIONARY
  5
357
102
{ACAD_REACTORS
330
356
102
}
330
356
100
AcDbDictionary
281
     1
  0
DICTIONARY
  5
353
102
{ACAD_REACTORS
330
352
102
}
330
352
100
AcDbDictionary
281
     1
  0
DICTIONARY
  5
34F
102
{ACAD_REACTORS
330
34E
102
}
330
34E
100
AcDbDictionary
281
     1
  0
DICTIONARY
  5
34B
102
{ACAD_REACTORS
330
34A
102
}
330
34A
100
AcDbDictionary
281
     1
  0
DICTIONARY
  5
347
102
{ACAD_REACTORS
330
346
102
}
330
346
100
AcDbDictionary
281
     1
  0
DICTIONARY
  5
343
102
{ACAD_REACTORS
330
342
102
}
330
342
100
AcDbDictionary
281
     1
  0
DICTIONARY
  5
33F
102
{ACAD_REACTORS
330
33E
102
}
330
33E
100
AcDbDictionary
281
     1
  0
DICTIONARY
  5
33B
102
{ACAD_REACTORS
330
33A
102
}
330
33A
100
AcDbDictionary
281
     1
  0
DICTIONARY
  5
337
102
{ACAD_REACTORS
330
336
102
}
330
336
100
AcDbDictionary
281
     1
  0
DICTIONARY
  5
333
102
{ACAD_REACTORS
330
332
102
}
330
332
100
AcDbDictionary
281
     1
  0
DICTIONARY
  5
32F
102
{ACAD_REACTORS
330
32E
102
}
330
32E
100
AcDbDictionary
281
     1
  0
DICTIONARY
  5
32B
102
{ACAD_REACTORS
330
32A
102
}
330
32A
100
AcDbDictionary
281
     1
  0
DICTIONARY
  5
327
102
{ACAD_REACTORS
330
326
102
}
330
326
100
AcDbDictionary
281
     1
  0
DICTIONARY
  5
323
102
{ACAD_REACTORS
330
322
102
}
330
322
100
AcDbDictionary
281
     1
  0
DICTIONARY
  5
31F
102
{ACAD_REACTORS
330
31E
102
}
330
31E
100
AcDbDictionary
281
     1
  0
DICTIONARY
  5
31B
102
{ACAD_REACTORS
330
31A
102
}
330
31A
100
AcDbDictionary
281
     1
  0
DICTIONARY
  5
317
102
{ACAD_REACTORS
330
316
102
}
330
316
100
AcDbDictionary
281
     1
  0
DICTIONARY
  5
313
102
{ACAD_REACTORS
330
312
102
}
330
312
100
AcDbDictionary
281
     1
  0
DICTIONARY
  5
30F
102
{ACAD_REACTORS
330
30E
102
}
330
30E
100
AcDbDictionary
281
     1
  0
DICTIONARY
  5
30B
102
{ACAD_REACTORS
330
30A
102
}
330
30A
100
AcDbDictionary
281
     1
  0
DICTIONARY
  5
307
102
{ACAD_REACTORS
330
306
102
}
330
306
100
AcDbDictionary
281
     1
  0
DICTIONARY
  5
303
102
{ACAD_REACTORS
330
302
102
}
330
302
100
AcDbDictionary
281
     1
  0
DICTIONARY
  5
2FF
102
{ACAD_REACTORS
330
2FE
102
}
330
2FE
100
AcDbDictionary
281
     1
  0
DICTIONARY
  5
2FB
102
{ACAD_REACTORS
330
2FA
102
}
330
2FA
100
AcDbDictionary
281
     1
  0
DICTIONARY
  5
2F7
102
{ACAD_REACTORS
330
2F6
102
}
330
2F6
100
AcDbDictionary
281
     1
  0
DICTIONARY
  5
2F3
102
{ACAD_REACTORS
330
2F2
102
}
330
2F2
100
AcDbDictionary
281
     1
  0
DICTIONARY
  5
2EF
102
{ACAD_REACTORS
330
2EE
102
}
330
2EE
100
AcDbDictionary
281
     1
  0
DICTIONARY
  5
2EB
102
{ACAD_REACTORS
330
2EA
102
}
330
2EA
100
AcDbDictionary
281
     1
  0
DICTIONARY
  5
2E7
102
{ACAD_REACTORS
330
2E6
102
}
330
2E6
100
AcDbDictionary
281
     1
  0
DICTIONARY
  5
2E3
102
{ACAD_REACTORS
330
2E2
102
}
330
2E2
100
AcDbDictionary
281
     1
  0
DICTIONARY
  5
2DF
102
{ACAD_REACTORS
330
2DE
102
}
330
2DE
100
AcDbDictionary
281
     1
  0
DICTIONARY
  5
2DB
102
{ACAD_REACTORS
330
2DA
102
}
330
2DA
100
AcDbDictionary
281
     1
  0
DICTIONARY
  5
2D7
102
{ACAD_REACTORS
330
2D6
102
}
330
2D6
100
AcDbDictionary
281
     1
  0
DICTIONARY
  5
2D3
102
{ACAD_REACTORS
330
2D2
102
}
330
2D2
100
AcDbDictionary
281
     1
  0
DICTIONARY
  5
2CF
102
{ACAD_REACTORS
330
2CE
102
}
330
2CE
100
AcDbDictionary
281
     1
  0
DICTIONARY
  5
2CB
102
{ACAD_REACTORS
330
2CA
102
}
330
2CA
100
AcDbDictionary
281
     1
  0
DICTIONARY
  5
2C7
102
{ACAD_REACTORS
330
2C6
102
}
330
2C6
100
AcDbDictionary
281
     1
  0
DICTIONARY
  5
2C3
102
{ACAD_REACTORS
330
2C2
102
}
330
2C2
100
AcDbDictionary
281
     1
  0
DICTIONARY
  5
2BF
102
{ACAD_REACTORS
330
2BE
102
}
330
2BE
100
AcDbDictionary
281
     1
  0
DICTIONARY
  5
2BB
102
{ACAD_REACTORS
330
2BA
102
}
330
2BA
100
AcDbDictionary
281
     1
  0
DICTIONARY
  5
2B7
102
{ACAD_REACTORS
330
2B6
102
}
330
2B6
100
AcDbDictionary
281
     1
  0
DICTIONARY
  5
2B3
102
{ACAD_REACTORS
330
2B2
102
}
330
2B2
100
AcDbDictionary
281
     1
  0
DICTIONARY
  5
2AF
102
{ACAD_REACTORS
330
2AE
102
}
330
2AE
100
AcDbDictionary
281
     1
  0
DICTIONARY
  5
2AB
102
{ACAD_REACTORS
330
2AA
102
}
330
2AA
100
AcDbDictionary
281
     1
  0
DICTIONARY
  5
2A7
102
{ACAD_REACTORS
330
2A6
102
}
330
2A6
100
AcDbDictionary
281
     1
  0
DICTIONARY
  5
2A3
102
{ACAD_REACTORS
330
2A2
102
}
330
2A2
100
AcDbDictionary
281
     1
  0
DICTIONARY
  5
29F
102
{ACAD_REACTORS
330
29E
102
}
330
29E
100
AcDbDictionary
281
     1
  0
DICTIONARY
  5
29B
102
{ACAD_REACTORS
330
29A
102
}
330
29A
100
AcDbDictionary
281
     1
  0
DICTIONARY
  5
297
102
{ACAD_REACTORS
330
296
102
}
330
296
100
AcDbDictionary
281
     1
  0
DICTIONARY
  5
293
102
{ACAD_REACTORS
330
292
102
}
330
292
100
AcDbDictionary
281
     1
  0
DICTIONARY
  5
28F
102
{ACAD_REACTORS
330
28E
102
}
330
28E
100
AcDbDictionary
281
     1
  0
DICTIONARY
  5
28B
102
{ACAD_REACTORS
330
28A
102
}
330
28A
100
AcDbDictionary
281
     1
  0
DICTIONARY
  5
287
102
{ACAD_REACTORS
330
286
102
}
330
286
100
AcDbDictionary
281
     1
  0
DICTIONARY
  5
283
102
{ACAD_REACTORS
330
282
102
}
330
282
100
AcDbDictionary
281
     1
  0
DICTIONARY
  5
27F
102
{ACAD_REACTORS
330
27E
102
}
330
27E
100
AcDbDictionary
281
     1
  0
DICTIONARY
  5
27B
102
{ACAD_REACTORS
330
27A
102
}
330
27A
100
AcDbDictionary
281
     1
  0
DICTIONARY
  5
277
102
{ACAD_REACTORS
330
276
102
}
330
276
100
AcDbDictionary
281
     1
  0
DICTIONARY
  5
273
102
{ACAD_REACTORS
330
272
102
}
330
272
100
AcDbDictionary
281
     1
  0
DICTIONARY
  5
26F
102
{ACAD_REACTORS
330
26E
102
}
330
26E
100
AcDbDictionary
281
     1
  0
DICTIONARY
  5
3FD
330
256
100
AcDbDictionary
280
     1
281
     1
  3
ACAD_XREC_ROUNDTRIP
360
3FE
  0
DICTIONARY
  5
3FB
330
252
100
AcDbDictionary
280
     1
281
     1
  3
ACAD_XREC_ROUNDTRIP
360
3FC
  0
DICTIONARY
  5
202
330
201
100
AcDbDictionary
280
     1
281
     1
  3
ACAD_XREC_ROUNDTRIP
360
3C7
  3
BUMPTILE
360
204
  3
DIFFUSETILE
360
203
  3
OPACITYTILE
360
207
  3
REFLECTIONTILE
360
206
  3
REFRACTIONTILE
360
208
  3
SPECULARTILE
360
205
  0
DICTIONARY
  5
1FA
330
1F9
100
AcDbDictionary
280
     1
281
     1
  3
ACAD_XREC_ROUNDTRIP
360
3C6
  3
BUMPTILE
360
1FC
  3
DIFFUSETILE
360
1FB
  3
OPACITYTILE
360
1FF
  3
REFLECTIONTILE
360
1FE
  3
REFRACTIONTILE
360
200
  3
SPECULARTILE
360
1FD
  0
DICTIONARY
  5
20A
330
209
100
AcDbDictionary
280
     1
281
     1
  3
ACAD_XREC_ROUNDTRIP
360
3C8
  3
BUMPTILE
360
20C
  3
DIFFUSETILE
360
20B
  3
OPACITYTILE
360
20F
  3
REFLECTIONTILE
360
20E
  3
REFRACTIONTILE
360
210
  3
SPECULARTILE
360
20D
  0
DICTIONARY
  5
3C2
330
24C
100
AcDbDictionary
280
     1
281
     1
  3
ACAD_ROUNDTRIP_2008_TABLESTYLE_CELLSTYLEMAP
360
3C3
  3
ACAD_XREC_ROUNDTRIP
360
3F9
  0
DICTIONARY
  5
3D3
330
217
100
AcDbDictionary
280
     1
281
     1
  3
ACAD_XREC_ROUNDTRIP
360
3D4
  0
DICTIONARY
  5
3D1
330
216
100
AcDbDictionary
280
     1
281
     1
  3
ACAD_XREC_ROUNDTRIP
360
3D2
  0
DICTIONARY
  5
3DF
330
21D
100
AcDbDictionary
280
     1
281
     1
  3
ACAD_XREC_ROUNDTRIP
360
3E0
  0
DICTIONARY
  5
3E7
330
221
100
AcDbDictionary
280
     1
281
     1
  3
ACAD_XREC_ROUNDTRIP
360
3E8
  0
DICTIONARY
  5
3D9
330
21A
100
AcDbDictionary
280
     1
281
     1
  3
ACAD_XREC_ROUNDTRIP
360
3DA
  0
DICTIONARY
  5
3DD
330
21C
100
AcDbDictionary
280
     1
281
     1
  3
ACAD_XREC_ROUNDTRIP
360
3DE
  0
DICTIONARY
  5
3F7
330
229
100
AcDbDictionary
280
     1
281
     1
  3
ACAD_XREC_ROUNDTRIP
360
3F8
  0
DICTIONARY
  5
3E5
330
220
100
AcDbDictionary
280
     1
281
     1
  3
ACAD_XREC_ROUNDTRIP
360
3E6
  0
DICTIONARY
  5
3C9
330
212
100
AcDbDictionary
280
     1
281
     1
  3
ACAD_XREC_ROUNDTRIP
360
3CA
  0
DICTIONARY
  5
3CB
330
213
100
AcDbDictionary
280
     1
281
     1
  3
ACAD_XREC_ROUNDTRIP
360
3CC
  0
DICTIONARY
  5
3CD
330
214
100
AcDbDictionary
280
     1
281
     1
  3
ACAD_XREC_ROUNDTRIP
360
3CE
  0
DICTIONARY
  5
3CF
330
215
100
AcDbDictionary
280
     1
281
     1
  3
ACAD_XREC_ROUNDTRIP
360
3D0
  0
DICTIONARY
  5
3D7
330
219
100
AcDbDictionary
280
     1
281
     1
  3
ACAD_XREC_ROUNDTRIP
360
3D8
  0
DICTIONARY
  5
3F3
330
227
100
AcDbDictionary
280
     1
281
     1
  3
ACAD_XREC_ROUNDTRIP
360
3F4
  0
DICTIONARY
  5
3E3
330
21F
100
AcDbDictionary
280
     1
281
     1
  3
ACAD_XREC_ROUNDTRIP
360
3E4
  0
DICTIONARY
  5
3F5
330
228
100
AcDbDictionary
280
     1
281
     1
  3
ACAD_XREC_ROUNDTRIP
360
3F6
  0
DICTIONARY
  5
3DB
330
21B
100
AcDbDictionary
280
     1
281
     1
  3
ACAD_XREC_ROUNDTRIP
360
3DC
  0
DICTIONARY
  5
3F1
330
226
100
AcDbDictionary
280
     1
281
     1
  3
ACAD_XREC_ROUNDTRIP
360
3F2
  0
DICTIONARY
  5
3EF
330
225
100
AcDbDictionary
280
     1
281
     1
  3
ACAD_XREC_ROUNDTRIP
360
3F0
  0
DICTIONARY
  5
3E9
330
222
100
AcDbDictionary
280
     1
281
     1
  3
ACAD_XREC_ROUNDTRIP
360
3EA
  0
DICTIONARY
  5
3EB
330
223
100
AcDbDictionary
280
     1
281
     1
  3
ACAD_XREC_ROUNDTRIP
360
3EC
  0
DICTIONARY
  5
3E1
330
21E
100
AcDbDictionary
280
     1
281
     1
  3
ACAD_XREC_ROUNDTRIP
360
3E2
  0
DICTIONARY
  5
3D5
330
218
100
AcDbDictionary
280
     1
281
     1
  3
ACAD_XREC_ROUNDTRIP
360
3D6
  0
DICTIONARY
  5
3ED
330
224
100
AcDbDictionary
280
     1
281
     1
  3
ACAD_XREC_ROUNDTRIP
360
3EE
  0
XRECORD
  5
3FE
102
{ACAD_REACTORS
330
3FD
102
}
330
3FD
100
AcDbXrecord
280
     1
102
SHADEPLOT
 70
     0
102
SHADEPLOTRESLEVEL
 70
     2
102
SHADEPLOTCUSTOMDPI
 70
   300
  0
XRECORD
  5
3FC
102
{ACAD_REACTORS
330
3FB
102
}
330
3FB
100
AcDbXrecord
280
     1
102
SHADEPLOT
 70
     0
102
SHADEPLOTRESLEVEL
 70
     2
102
SHADEPLOTCUSTOMDPI
 70
   300
  0
XRECORD
  5
3C7
102
{ACAD_REACTORS
330
202
102
}
330
202
100
AcDbXrecord
280
     1
102
MATERIAL
148
0.0
149
0.0
149
0.0
 93
        0
 94
      127
282
     0
 72
     0
 77
     0
171
     0
175
     0
179
     0
273
     0
  0
XRECORD
  5
204
102
{ACAD_REACTORS
330
202
102
}
330
202
100
AcDbXrecord
280
     1
270
     1
271
     1
  0
XRECORD
  5
203
102
{ACAD_REACTORS
330
202
102
}
330
202
100
AcDbXrecord
280
     1
270
     1
271
     1
  0
XRECORD
  5
207
102
{ACAD_REACTORS
330
202
102
}
330
202
100
AcDbXrecord
280
     1
270
     1
271
     1
  0
XRECORD
  5
206
102
{ACAD_REACTORS
330
202
102
}
330
202
100
AcDbXrecord
280
     1
270
     1
271
     1
  0
XRECORD
  5
208
102
{ACAD_REACTORS
330
202
102
}
330
202
100
AcDbXrecord
280
     1
270
     1
271
     1
  0
XRECORD
  5
205
102
{ACAD_REACTORS
330
202
102
}
330
202
100
AcDbXrecord
280
     1
270
     1
271
     1
  0
XRECORD
  5
3C6
102
{ACAD_REACTORS
330
1FA
102
}
330
1FA
100
AcDbXrecord
280
     1
102
MATERIAL
148
0.0
149
0.0
149
0.0
 93
        0
 94
      127
282
     0
 72
     0
 77
     0
171
     0
175
     0
179
     0
273
     0
  0
XRECORD
  5
1FC
102
{ACAD_REACTORS
330
1FA
102
}
330
1FA
100
AcDbXrecord
280
     1
270
     1
271
     1
  0
XRECORD
  5
1FB
102
{ACAD_REACTORS
330
1FA
102
}
330
1FA
100
AcDbXrecord
280
     1
270
     1
271
     1
  0
XRECORD
  5
1FF
102
{ACAD_REACTORS
330
1FA
102
}
330
1FA
100
AcDbXrecord
280
     1
270
     1
271
     1
  0
XRECORD
  5
1FE
102
{ACAD_REACTORS
330
1FA
102
}
330
1FA
100
AcDbXrecord
280
     1
270
     1
271
     1
  0
XRECORD
  5
200
102
{ACAD_REACTORS
330
1FA
102
}
330
1FA
100
AcDbXrecord
280
     1
270
     1
271
     1
  0
XRECORD
  5
1FD
102
{ACAD_REACTORS
330
1FA
102
}
330
1FA
100
AcDbXrecord
280
     1
270
     1
271
     1
  0
XRECORD
  5
3C8
102
{ACAD_REACTORS
330
20A
102
}
330
20A
100
AcDbXrecord
280
     1
102
MATERIAL
148
0.0
149
0.0
149
0.0
 93
        0
 94
      127
282
     0
 72
     0
 77
     0
171
     0
175
     0
179
     0
273
     0
  0
XRECORD
  5
20C
102
{ACAD_REACTORS
330
20A
102
}
330
20A
100
AcDbXrecord
280
     1
270
     1
271
     1
  0
XRECORD
  5
20B
102
{ACAD_REACTORS
330
20A
102
}
330
20A
100
AcDbXrecord
280
     1
270
     1
271
     1
  0
XRECORD
  5
20F
102
{ACAD_REACTORS
330
20A
102
}
330
20A
100
AcDbXrecord
280
     1
270
     1
271
     1
  0
XRECORD
  5
20E
102
{ACAD_REACTORS
330
20A
102
}
330
20A
100
AcDbXrecord
280
     1
270
     1
271
     1
  0
XRECORD
  5
210
102
{ACAD_REACTORS
330
20A
102
}
330
20A
100
AcDbXrecord
280
     1
270
     1
271
     1
  0
XRECORD
  5
20D
102
{ACAD_REACTORS
330
20A
102
}
330
20A
100
AcDbXrecord
280
     1
270
     1
271
     1
  0
CELLSTYLEMAP
  5
3C3
102
{ACAD_REACTORS
330
3C2
102
}
330
3C2
100
AcDbCellStyleMap
 90
        3
300
CELLSTYLE
  1
TABLEFORMAT_BEGIN
 90
        5
170
     1
 91
        0
 92
    32768
 62
   257
 93
        1
300
CONTENTFORMAT
  1
CONTENTFORMAT_BEGIN
 90
        0
 91
        0
 92
      512
 93
        0
300

 40
0.0
140
1.0
 94
        5
 62
     0
340
23D
144
0.25
309
CONTENTFORMAT_END
171
     0
 94
        0
309
TABLEFORMAT_END
  1
CELLSTYLE_BEGIN
 90
        1
 91
        1
300
_TITLE
309
CELLSTYLE_END
300
CELLSTYLE
  1
TABLEFORMAT_BEGIN
 90
        5
170
     1
 91
        0
 92
        0
 62
   257
 93
        1
300
CONTENTFORMAT
  1
CONTENTFORMAT_BEGIN
 90
        0
 91
        0
 92
      512
 93
        0
300

 40
0.0
140
1.0
 94
        5
 62
     0
340
23D
144
0.18
309
CONTENTFORMAT_END
171
     0
 94
        0
309
TABLEFORMAT_END
  1
CELLSTYLE_BEGIN
 90
        2
 91
        1
300
_HEADER
309
CELLSTYLE_END
300
CELLSTYLE
  1
TABLEFORMAT_BEGIN
 90
        5
170
     1
 91
        0
 92
        0
 62
   257
 93
        1
300
CONTENTFORMAT
  1
CONTENTFORMAT_BEGIN
 90
        0
 91
        0
 92
      512
 93
        0
300

 40
0.0
140
1.0
 94
        2
 62
     0
340
23D
144
0.18
309
CONTENTFORMAT_END
171
     0
 94
        0
309
TABLEFORMAT_END
  1
CELLSTYLE_BEGIN
 90
        3
 91
        2
300
_DATA
309
CELLSTYLE_END
  0
XRECORD
  5
3F9
102
{ACAD_REACTORS
330
3C2
102
}
330
3C2
100
AcDbXrecord
280
     1
102
ACAD_ROUNDTRIP_PRE2007_TABLESTYLE
 90
      512
 91
        0
  1

 92
      512
 93
        0
  2

 94
      512
 95
        0
  3

  0
XRECORD
  5
3D4
102
{ACAD_REACTORS
330
3D3
102
}
330
3D3
100
AcDbXrecord
280
     1
102
RTVSPropertyOp0
 70
     1
102
RTVSPropertyOp1
 70
     1
102
RTVSPropertyOp2
 70
     1
102
RTVSPropertyOp3
 70
     1
102
RTVSPropertyOp4
 70
     1
102
RTVSPropertyOp5
 70
     1
102
RTVSPropertyOp6
 70
     1
102
RTVSPropertyOp7
 70
     1
102
RTVSPropertyOp8
 70
     1
102
RTVSPropertyOp9
 70
     1
102
RTVSPropertyOp10
 70
     1
102
RTVSPropertyOp11
 70
     1
102
RTVSPropertyOp12
 70
     1
102
RTVSPropertyOp13
 70
     1
102
RTVSPropertyOp14
 70
     1
102
RTVSPropertyOp15
 70
     1
102
RTVSPropertyOp16
 70
     1
102
RTVSPropertyOp17
 70
     1
102
RTVSPropertyOp18
 70
     1
102
RTVSPropertyOp19
 70
     1
102
RTVSPropertyOp20
 70
     1
102
RTVSPropertyOp21
 70
     1
102
RTVSPropertyOp22
 70
     1
102
RTVSPropertyOp23
 70
     1
102
RTVSPropertyOp24
 70
     1
102
RTVSPropertyOp25
 70
     1
102
RTVSPropertyOp26
 70
     1
102
RTVSPropertyOp27
 70
     1
102
RTVSPropertyOp28
 70
     1
102
RTVSPropertyOp29
 70
     1
102
RTVSPropertyOp30
 70
     1
102
RTVSPropertyOp31
 70
     1
102
RTVSPropertyOp32
 70
     1
  0
XRECORD
  5
3D2
102
{ACAD_REACTORS
330
3D1
102
}
330
3D1
100
AcDbXrecord
280
     1
102
RTVSPropertyOp0
 70
     1
102
RTVSPropertyOp1
 70
     1
102
RTVSPropertyOp2
 70
     1
102
RTVSPropertyOp3
 70
     1
102
RTVSPropertyOp4
 70
     1
102
RTVSPropertyOp5
 70
     1
102
RTVSPropertyOp6
 70
     1
102
RTVSPropertyOp7
 70
     1
102
RTVSPropertyOp8
 70
     1
102
RTVSPropertyOp9
 70
     1
102
RTVSPropertyOp10
 70
     1
102
RTVSPropertyOp11
 70
     1
102
RTVSPropertyOp12
 70
     1
102
RTVSPropertyOp13
 70
     1
102
RTVSPropertyOp14
 70
     1
102
RTVSPropertyOp15
 70
     1
102
RTVSPropertyOp16
 70
     1
102
RTVSPropertyOp17
 70
     1
102
RTVSPropertyOp18
 70
     1
102
RTVSPropertyOp19
 70
     1
102
RTVSPropertyOp20
 70
     1
102
RTVSPropertyOp21
 70
     1
102
RTVSPropertyOp22
 70
     1
102
RTVSPropertyOp23
 70
     1
102
RTVSPropertyOp24
 70
     1
102
RTVSPropertyOp25
 70
     1
102
RTVSPropertyOp26
 70
     1
102
RTVSPropertyOp27
 70
     1
102
RTVSPropertyOp28
 70
     1
102
RTVSPropertyOp29
 70
     1
102
RTVSPropertyOp30
 70
     1
102
RTVSPropertyOp31
 70
     1
102
RTVSPropertyOp32
 70
     1
  0
XRECORD
  5
3E0
102
{ACAD_REACTORS
330
3DF
102
}
330
3DF
100
AcDbXrecord
280
     1
102
RTVSPropertyOp0
 70
     1
102
RTVSPropertyOp1
 70
     1
102
RTVSPropertyOp2
 70
     1
102
RTVSPropertyOp3
 70
     1
102
RTVSPropertyOp4
 70
     1
102
RTVSPropertyOp5
 70
     1
102
RTVSPropertyOp6
 70
     1
102
RTVSPropertyOp7
 70
     1
102
RTVSPropertyOp8
 70
     1
102
RTVSPropertyOp9
 70
     1
102
RTVSPropertyOp10
 70
     1
102
RTVSPropertyOp11
 70
     1
102
RTVSPropertyOp12
 70
     1
102
RTVSPropertyOp13
 70
     1
102
RTVSPropertyOp14
 70
     1
102
RTVSPropertyOp15
 70
     1
102
RTVSPropertyOp16
 70
     1
102
RTVSPropertyOp17
 70
     1
102
RTVSPropertyOp18
 70
     1
102
RTVSPropertyOp19
 70
     1
102
RTVSPropertyOp20
 70
     1
102
RTVSPropertyOp21
 70
     1
102
RTVSPropertyOp22
 70
     1
102
RTVSPropertyOp23
 70
     1
102
RTVSPropertyOp24
 70
     1
102
RTVSPropertyOp25
 70
     1
102
RTVSPropertyOp26
 70
     1
102
RTVSPropertyOp27
 70
     1
102
RTVSPropertyOp28
 70
     1
102
RTVSPropertyOp29
 70
     1
102
RTVSPropertyOp30
 70
     1
102
RTVSPropertyOp31
 70
     1
102
RTVSPropertyOp32
 70
     1
  0
XRECORD
  5
3E8
102
{ACAD_REACTORS
330
3E7
102
}
330
3E7
100
AcDbXrecord
280
     1
102
RTVSPropertyOp0
 70
     1
102
RTVSPropertyOp1
 70
     1
102
RTVSPropertyOp2
 70
     1
102
RTVSPropertyOp3
 70
     1
102
RTVSPropertyOp4
 70
     1
102
RTVSPropertyOp5
 70
     1
102
RTVSPropertyOp6
 70
     1
102
RTVSPropertyOp7
 70
     1
102
RTVSPropertyOp8
 70
     1
102
RTVSPropertyOp9
 70
     1
102
RTVSPropertyOp10
 70
     1
102
RTVSPropertyOp11
 70
     1
102
RTVSPropertyOp12
 70
     1
102
RTVSPropertyOp13
 70
     1
102
RTVSPropertyOp14
 70
     1
102
RTVSPropertyOp15
 70
     1
102
RTVSPropertyOp16
 70
     1
102
RTVSPropertyOp17
 70
     1
102
RTVSPropertyOp18
 70
     1
102
RTVSPropertyOp19
 70
     1
102
RTVSPropertyOp20
 70
     1
102
RTVSPropertyOp21
 70
     1
102
RTVSPropertyOp22
 70
     1
102
RTVSPropertyOp23
 70
     1
102
RTVSPropertyOp24
 70
     1
102
RTVSPropertyOp25
 70
     1
102
RTVSPropertyOp26
 70
     1
102
RTVSPropertyOp27
 70
     1
102
RTVSPropertyOp28
 70
     1
102
RTVSPropertyOp29
 70
     1
102
RTVSPropertyOp30
 70
     1
102
RTVSPropertyOp31
 70
     1
102
RTVSPropertyOp32
 70
     1
  0
XRECORD
  5
3DA
102
{ACAD_REACTORS
330
3D9
102
}
330
3D9
100
AcDbXrecord
280
     1
102
RTVSPropertyOp0
 70
     1
102
RTVSPropertyOp1
 70
     1
102
RTVSPropertyOp2
 70
     1
102
RTVSPropertyOp3
 70
     1
102
RTVSPropertyOp4
 70
     1
102
RTVSPropertyOp5
 70
     1
102
RTVSPropertyOp6
 70
     1
102
RTVSPropertyOp7
 70
     1
102
RTVSPropertyOp8
 70
     1
102
RTVSPropertyOp9
 70
     1
102
RTVSPropertyOp10
 70
     1
102
RTVSPropertyOp11
 70
     1
102
RTVSPropertyOp12
 70
     1
102
RTVSPropertyOp13
 70
     1
102
RTVSPropertyOp14
 70
     1
102
RTVSPropertyOp15
 70
     1
102
RTVSPropertyOp16
 70
     1
102
RTVSPropertyOp17
 70
     1
102
RTVSPropertyOp18
 70
     1
102
RTVSPropertyOp19
 70
     1
102
RTVSPropertyOp20
 70
     1
102
RTVSPropertyOp21
 70
     1
102
RTVSPropertyOp22
 70
     1
102
RTVSPropertyOp23
 70
     1
102
RTVSPropertyOp24
 70
     1
102
RTVSPropertyOp25
 70
     1
102
RTVSPropertyOp26
 70
     1
102
RTVSPropertyOp27
 70
     1
102
RTVSPropertyOp28
 70
     1
102
RTVSPropertyOp29
 70
     1
102
RTVSPropertyOp30
 70
     1
102
RTVSPropertyOp31
 70
     1
102
RTVSPropertyOp32
 70
     1
  0
XRECORD
  5
3DE
102
{ACAD_REACTORS
330
3DD
102
}
330
3DD
100
AcDbXrecord
280
     1
102
RTVSPropertyOp0
 70
     1
102
RTVSPropertyOp1
 70
     1
102
RTVSPropertyOp2
 70
     1
102
RTVSPropertyOp3
 70
     1
102
RTVSPropertyOp4
 70
     1
102
RTVSPropertyOp5
 70
     1
102
RTVSPropertyOp6
 70
     1
102
RTVSPropertyOp7
 70
     1
102
RTVSPropertyOp8
 70
     1
102
RTVSPropertyOp9
 70
     1
102
RTVSPropertyOp10
 70
     1
102
RTVSPropertyOp11
 70
     1
102
RTVSPropertyOp12
 70
     1
102
RTVSPropertyOp13
 70
     1
102
RTVSPropertyOp14
 70
     1
102
RTVSPropertyOp15
 70
     1
102
RTVSPropertyOp16
 70
     1
102
RTVSPropertyOp17
 70
     1
102
RTVSPropertyOp18
 70
     1
102
RTVSPropertyOp19
 70
     1
102
RTVSPropertyOp20
 70
     1
102
RTVSPropertyOp21
 70
     1
102
RTVSPropertyOp22
 70
     1
102
RTVSPropertyOp23
 70
     1
102
RTVSPropertyOp24
 70
     1
102
RTVSPropertyOp25
 70
     1
102
RTVSPropertyOp26
 70
     1
102
RTVSPropertyOp27
 70
     1
102
RTVSPropertyOp28
 70
     1
102
RTVSPropertyOp29
 70
     1
102
RTVSPropertyOp30
 70
     1
102
RTVSPropertyOp31
 70
     1
102
RTVSPropertyOp32
 70
     1
  0
XRECORD
  5
3F8
102
{ACAD_REACTORS
330
3F7
102
}
330
3F7
100
AcDbXrecord
280
     1
102
RTVSPropertyOp0
 70
     0
102
RTVSPropertyOp1
 70
     0
102
RTVSPropertyOp2
 70
     0
102
RTVSPropertyOp3
 70
     0
102
RTVSPropertyOp4
 70
     0
102
RTVSPropertyOp5
 70
     0
102
RTVSPropertyOp6
 70
     0
102
RTVSPropertyOp7
 70
     0
102
RTVSPropertyOp8
 70
     0
102
RTVSPropertyOp9
 70
     0
102
RTVSPropertyOp10
 70
     0
102
RTVSPropertyOp11
 70
     0
102
RTVSPropertyOp12
 70
     0
102
RTVSPropertyOp13
 70
     0
102
RTVSPropertyOp14
 70
     2
102
RTVSPropertyOp15
 70
     0
102
RTVSPropertyOp16
 70
     0
102
RTVSPropertyOp17
 70
     0
102
RTVSPropertyOp18
 70
     0
102
RTVSPropertyOp19
 70
     0
102
RTVSPropertyOp20
 70
     0
102
RTVSPropertyOp21
 70
     0
102
RTVSPropertyOp22
 70
     0
102
RTVSPropertyOp23
 70
     0
102
RTVSPropertyOp24
 70
     0
102
RTVSPropertyOp25
 70
     0
102
RTVSPropertyOp26
 70
     0
102
RTVSPropertyOp27
 70
     0
102
RTVSPropertyOp28
 70
     0
102
RTVSPropertyOp29
 70
     0
102
RTVSPropertyOp30
 70
     0
102
RTVSPropertyOp31
 70
     0
102
RTVSPropertyOp32
 70
     0
  0
XRECORD
  5
3E6
102
{ACAD_REACTORS
330
3E5
102
}
330
3E5
100
AcDbXrecord
280
     1
102
RTVSPropertyOp0
 70
     1
102
RTVSPropertyOp1
 70
     1
102
RTVSPropertyOp2
 70
     1
102
RTVSPropertyOp3
 70
     1
102
RTVSPropertyOp4
 70
     1
102
RTVSPropertyOp5
 70
     1
102
RTVSPropertyOp6
 70
     1
102
RTVSPropertyOp7
 70
     1
102
RTVSPropertyOp8
 70
     1
102
RTVSPropertyOp9
 70
     1
102
RTVSPropertyOp10
 70
     1
102
RTVSPropertyOp11
 70
     1
102
RTVSPropertyOp12
 70
     1
102
RTVSPropertyOp13
 70
     1
102
RTVSPropertyOp14
 70
     1
102
RTVSPropertyOp15
 70
     1
102
RTVSPropertyOp16
 70
     1
102
RTVSPropertyOp17
 70
     1
102
RTVSPropertyOp18
 70
     1
102
RTVSPropertyOp19
 70
     1
102
RTVSPropertyOp20
 70
     1
102
RTVSPropertyOp21
 70
     1
102
RTVSPropertyOp22
 70
     1
102
RTVSPropertyOp23
 70
     1
102
RTVSPropertyOp24
 70
     1
102
RTVSPropertyOp25
 70
     1
102
RTVSPropertyOp26
 70
     1
102
RTVSPropertyOp27
 70
     1
102
RTVSPropertyOp28
 70
     1
102
RTVSPropertyOp29
 70
     1
102
RTVSPropertyOp30
 70
     1
102
RTVSPropertyOp31
 70
     1
102
RTVSPropertyOp32
 70
     1
  0
XRECORD
  5
3CA
102
{ACAD_REACTORS
330
3C9
102
}
330
3C9
100
AcDbXrecord
280
     1
102
RTVSPropertyOp0
 70
     1
102
RTVSPropertyOp1
 70
     1
102
RTVSPropertyOp2
 70
     1
102
RTVSPropertyOp3
 70
     1
102
RTVSPropertyOp4
 70
     1
102
RTVSPropertyOp5
 70
     1
102
RTVSPropertyOp6
 70
     1
102
RTVSPropertyOp7
 70
     1
102
RTVSPropertyOp8
 70
     1
102
RTVSPropertyOp9
 70
     1
102
RTVSPropertyOp10
 70
     1
102
RTVSPropertyOp11
 70
     1
102
RTVSPropertyOp12
 70
     1
102
RTVSPropertyOp13
 70
     1
102
RTVSPropertyOp14
 70
     1
102
RTVSPropertyOp15
 70
     1
102
RTVSPropertyOp16
 70
     1
102
RTVSPropertyOp17
 70
     1
102
RTVSPropertyOp18
 70
     1
102
RTVSPropertyOp19
 70
     1
102
RTVSPropertyOp20
 70
     1
102
RTVSPropertyOp21
 70
     1
102
RTVSPropertyOp22
 70
     1
102
RTVSPropertyOp23
 70
     1
102
RTVSPropertyOp24
 70
     1
102
RTVSPropertyOp25
 70
     1
102
RTVSPropertyOp26
 70
     1
102
RTVSPropertyOp27
 70
     1
102
RTVSPropertyOp28
 70
     1
102
RTVSPropertyOp29
 70
     1
102
RTVSPropertyOp30
 70
     1
102
RTVSPropertyOp31
 70
     1
102
RTVSPropertyOp32
 70
     1
  0
XRECORD
  5
3CC
102
{ACAD_REACTORS
330
3CB
102
}
330
3CB
100
AcDbXrecord
280
     1
102
RTVSPropertyOp0
 70
     1
102
RTVSPropertyOp1
 70
     1
102
RTVSPropertyOp2
 70
     1
102
RTVSPropertyOp3
 70
     1
102
RTVSPropertyOp4
 70
     1
102
RTVSPropertyOp5
 70
     1
102
RTVSPropertyOp6
 70
     1
102
RTVSPropertyOp7
 70
     1
102
RTVSPropertyOp8
 70
     1
102
RTVSPropertyOp9
 70
     1
102
RTVSPropertyOp10
 70
     1
102
RTVSPropertyOp11
 70
     1
102
RTVSPropertyOp12
 70
     1
102
RTVSPropertyOp13
 70
     1
102
RTVSPropertyOp14
 70
     1
102
RTVSPropertyOp15
 70
     1
102
RTVSPropertyOp16
 70
     1
102
RTVSPropertyOp17
 70
     1
102
RTVSPropertyOp18
 70
     1
102
RTVSPropertyOp19
 70
     1
102
RTVSPropertyOp20
 70
     1
102
RTVSPropertyOp21
 70
     1
102
RTVSPropertyOp22
 70
     1
102
RTVSPropertyOp23
 70
     1
102
RTVSPropertyOp24
 70
     1
102
RTVSPropertyOp25
 70
     1
102
RTVSPropertyOp26
 70
     1
102
RTVSPropertyOp27
 70
     1
102
RTVSPropertyOp28
 70
     1
102
RTVSPropertyOp29
 70
     1
102
RTVSPropertyOp30
 70
     1
102
RTVSPropertyOp31
 70
     1
102
RTVSPropertyOp32
 70
     1
  0
XRECORD
  5
3CE
102
{ACAD_REACTORS
330
3CD
102
}
330
3CD
100
AcDbXrecord
280
     1
102
RTVSPropertyOp0
 70
     1
102
RTVSPropertyOp1
 70
     1
102
RTVSPropertyOp2
 70
     1
102
RTVSPropertyOp3
 70
     1
102
RTVSPropertyOp4
 70
     1
102
RTVSPropertyOp5
 70
     1
102
RTVSPropertyOp6
 70
     1
102
RTVSPropertyOp7
 70
     1
102
RTVSPropertyOp8
 70
     1
102
RTVSPropertyOp9
 70
     1
102
RTVSPropertyOp10
 70
     1
102
RTVSPropertyOp11
 70
     1
102
RTVSPropertyOp12
 70
     1
102
RTVSPropertyOp13
 70
     1
102
RTVSPropertyOp14
 70
     1
102
RTVSPropertyOp15
 70
     1
102
RTVSPropertyOp16
 70
     1
102
RTVSPropertyOp17
 70
     1
102
RTVSPropertyOp18
 70
     1
102
RTVSPropertyOp19
 70
     1
102
RTVSPropertyOp20
 70
     1
102
RTVSPropertyOp21
 70
     1
102
RTVSPropertyOp22
 70
     1
102
RTVSPropertyOp23
 70
     1
102
RTVSPropertyOp24
 70
     1
102
RTVSPropertyOp25
 70
     1
102
RTVSPropertyOp26
 70
     1
102
RTVSPropertyOp27
 70
     1
102
RTVSPropertyOp28
 70
     1
102
RTVSPropertyOp29
 70
     1
102
RTVSPropertyOp30
 70
     1
102
RTVSPropertyOp31
 70
     1
102
RTVSPropertyOp32
 70
     1
  0
XRECORD
  5
3D0
102
{ACAD_REACTORS
330
3CF
102
}
330
3CF
100
AcDbXrecord
280
     1
102
RTVSPropertyOp0
 70
     1
102
RTVSPropertyOp1
 70
     1
102
RTVSPropertyOp2
 70
     1
102
RTVSPropertyOp3
 70
     1
102
RTVSPropertyOp4
 70
     1
102
RTVSPropertyOp5
 70
     1
102
RTVSPropertyOp6
 70
     1
102
RTVSPropertyOp7
 70
     1
102
RTVSPropertyOp8
 70
     1
102
RTVSPropertyOp9
 70
     1
102
RTVSPropertyOp10
 70
     1
102
RTVSPropertyOp11
 70
     1
102
RTVSPropertyOp12
 70
     1
102
RTVSPropertyOp13
 70
     1
102
RTVSPropertyOp14
 70
     1
102
RTVSPropertyOp15
 70
     1
102
RTVSPropertyOp16
 70
     1
102
RTVSPropertyOp17
 70
     1
102
RTVSPropertyOp18
 70
     1
102
RTVSPropertyOp19
 70
     1
102
RTVSPropertyOp20
 70
     1
102
RTVSPropertyOp21
 70
     1
102
RTVSPropertyOp22
 70
     1
102
RTVSPropertyOp23
 70
     1
102
RTVSPropertyOp24
 70
     1
102
RTVSPropertyOp25
 70
     1
102
RTVSPropertyOp26
 70
     1
102
RTVSPropertyOp27
 70
     1
102
RTVSPropertyOp28
 70
     1
102
RTVSPropertyOp29
 70
     1
102
RTVSPropertyOp30
 70
     1
102
RTVSPropertyOp31
 70
     1
102
RTVSPropertyOp32
 70
     1
  0
XRECORD
  5
3D8
102
{ACAD_REACTORS
330
3D7
102
}
330
3D7
100
AcDbXrecord
280
     1
102
RTVSPropertyOp0
 70
     1
102
RTVSPropertyOp1
 70
     1
102
RTVSPropertyOp2
 70
     1
102
RTVSPropertyOp3
 70
     1
102
RTVSPropertyOp4
 70
     1
102
RTVSPropertyOp5
 70
     1
102
RTVSPropertyOp6
 70
     1
102
RTVSPropertyOp7
 70
     1
102
RTVSPropertyOp8
 70
     1
102
RTVSPropertyOp9
 70
     1
102
RTVSPropertyOp10
 70
     1
102
RTVSPropertyOp11
 70
     1
102
RTVSPropertyOp12
 70
     1
102
RTVSPropertyOp13
 70
     1
102
RTVSPropertyOp14
 70
     1
102
RTVSPropertyOp15
 70
     1
102
RTVSPropertyOp16
 70
     1
102
RTVSPropertyOp17
 70
     1
102
RTVSPropertyOp18
 70
     1
102
RTVSPropertyOp19
 70
     1
102
RTVSPropertyOp20
 70
     1
102
RTVSPropertyOp21
 70
     1
102
RTVSPropertyOp22
 70
     1
102
RTVSPropertyOp23
 70
     1
102
RTVSPropertyOp24
 70
     1
102
RTVSPropertyOp25
 70
     1
102
RTVSPropertyOp26
 70
     1
102
RTVSPropertyOp27
 70
     1
102
RTVSPropertyOp28
 70
     1
102
RTVSPropertyOp29
 70
     1
102
RTVSPropertyOp30
 70
     1
102
RTVSPropertyOp31
 70
     1
102
RTVSPropertyOp32
 70
     1
  0
XRECORD
  5
3F4
102
{ACAD_REACTORS
330
3F3
102
}
330
3F3
100
AcDbXrecord
280
     1
102
RTVSPropertyOp0
 70
     0
102
RTVSPropertyOp1
 70
     0
102
RTVSPropertyOp2
 70
     0
102
RTVSPropertyOp3
 70
     0
102
RTVSPropertyOp4
 70
     0
102
RTVSPropertyOp5
 70
     0
102
RTVSPropertyOp6
 70
     0
102
RTVSPropertyOp7
 70
     0
102
RTVSPropertyOp8
 70
     0
102
RTVSPropertyOp9
 70
     0
102
RTVSPropertyOp10
 70
     0
102
RTVSPropertyOp11
 70
     0
102
RTVSPropertyOp12
 70
     0
102
RTVSPropertyOp13
 70
     0
102
RTVSPropertyOp14
 70
     2
102
RTVSPropertyOp15
 70
     0
102
RTVSPropertyOp16
 70
     0
102
RTVSPropertyOp17
 70
     0
102
RTVSPropertyOp18
 70
     0
102
RTVSPropertyOp19
 70
     0
102
RTVSPropertyOp20
 70
     0
102
RTVSPropertyOp21
 70
     0
102
RTVSPropertyOp22
 70
     0
102
RTVSPropertyOp23
 70
     0
102
RTVSPropertyOp24
 70
     0
102
RTVSPropertyOp25
 70
     0
102
RTVSPropertyOp26
 70
     0
102
RTVSPropertyOp27
 70
     0
102
RTVSPropertyOp28
 70
     0
102
RTVSPropertyOp29
 70
     0
102
RTVSPropertyOp30
 70
     0
102
RTVSPropertyOp31
 70
     0
102
RTVSPropertyOp32
 70
     0
  0
XRECORD
  5
3E4
102
{ACAD_REACTORS
330
3E3
102
}
330
3E3
100
AcDbXrecord
280
     1
102
RTVSPropertyOp0
 70
     1
102
RTVSPropertyOp1
 70
     1
102
RTVSPropertyOp2
 70
     1
102
RTVSPropertyOp3
 70
     1
102
RTVSPropertyOp4
 70
     1
102
RTVSPropertyOp5
 70
     1
102
RTVSPropertyOp6
 70
     1
102
RTVSPropertyOp7
 70
     1
102
RTVSPropertyOp8
 70
     1
102
RTVSPropertyOp9
 70
     1
102
RTVSPropertyOp10
 70
     1
102
RTVSPropertyOp11
 70
     1
102
RTVSPropertyOp12
 70
     1
102
RTVSPropertyOp13
 70
     1
102
RTVSPropertyOp14
 70
     1
102
RTVSPropertyOp15
 70
     1
102
RTVSPropertyOp16
 70
     1
102
RTVSPropertyOp17
 70
     1
102
RTVSPropertyOp18
 70
     1
102
RTVSPropertyOp19
 70
     1
102
RTVSPropertyOp20
 70
     1
102
RTVSPropertyOp21
 70
     1
102
RTVSPropertyOp22
 70
     1
102
RTVSPropertyOp23
 70
     1
102
RTVSPropertyOp24
 70
     1
102
RTVSPropertyOp25
 70
     1
102
RTVSPropertyOp26
 70
     1
102
RTVSPropertyOp27
 70
     1
102
RTVSPropertyOp28
 70
     1
102
RTVSPropertyOp29
 70
     1
102
RTVSPropertyOp30
 70
     1
102
RTVSPropertyOp31
 70
     1
102
RTVSPropertyOp32
 70
     1
  0
XRECORD
  5
3F6
102
{ACAD_REACTORS
330
3F5
102
}
330
3F5
100
AcDbXrecord
280
     1
102
RTVSPropertyOp0
 70
     0
102
RTVSPropertyOp1
 70
     0
102
RTVSPropertyOp2
 70
     0
102
RTVSPropertyOp3
 70
     0
102
RTVSPropertyOp4
 70
     0
102
RTVSPropertyOp5
 70
     0
102
RTVSPropertyOp6
 70
     0
102
RTVSPropertyOp7
 70
     0
102
RTVSPropertyOp8
 70
     0
102
RTVSPropertyOp9
 70
     0
102
RTVSPropertyOp10
 70
     0
102
RTVSPropertyOp11
 70
     0
102
RTVSPropertyOp12
 70
     0
102
RTVSPropertyOp13
 70
     0
102
RTVSPropertyOp14
 70
     2
102
RTVSPropertyOp15
 70
     0
102
RTVSPropertyOp16
 70
     0
102
RTVSPropertyOp17
 70
     0
102
RTVSPropertyOp18
 70
     0
102
RTVSPropertyOp19
 70
     0
102
RTVSPropertyOp20
 70
     0
102
RTVSPropertyOp21
 70
     0
102
RTVSPropertyOp22
 70
     0
102
RTVSPropertyOp23
 70
     0
102
RTVSPropertyOp24
 70
     0
102
RTVSPropertyOp25
 70
     0
102
RTVSPropertyOp26
 70
     0
102
RTVSPropertyOp27
 70
     0
102
RTVSPropertyOp28
 70
     0
102
RTVSPropertyOp29
 70
     0
102
RTVSPropertyOp30
 70
     0
102
RTVSPropertyOp31
 70
     0
102
RTVSPropertyOp32
 70
     0
  0
XRECORD
  5
3DC
102
{ACAD_REACTORS
330
3DB
102
}
330
3DB
100
AcDbXrecord
280
     1
102
RTVSPropertyOp0
 70
     1
102
RTVSPropertyOp1
 70
     1
102
RTVSPropertyOp2
 70
     1
102
RTVSPropertyOp3
 70
     1
102
RTVSPropertyOp4
 70
     1
102
RTVSPropertyOp5
 70
     1
102
RTVSPropertyOp6
 70
     1
102
RTVSPropertyOp7
 70
     1
102
RTVSPropertyOp8
 70
     1
102
RTVSPropertyOp9
 70
     1
102
RTVSPropertyOp10
 70
     1
102
RTVSPropertyOp11
 70
     1
102
RTVSPropertyOp12
 70
     1
102
RTVSPropertyOp13
 70
     1
102
RTVSPropertyOp14
 70
     1
102
RTVSPropertyOp15
 70
     1
102
RTVSPropertyOp16
 70
     1
102
RTVSPropertyOp17
 70
     1
102
RTVSPropertyOp18
 70
     1
102
RTVSPropertyOp19
 70
     1
102
RTVSPropertyOp20
 70
     1
102
RTVSPropertyOp21
 70
     1
102
RTVSPropertyOp22
 70
     1
102
RTVSPropertyOp23
 70
     1
102
RTVSPropertyOp24
 70
     1
102
RTVSPropertyOp25
 70
     1
102
RTVSPropertyOp26
 70
     1
102
RTVSPropertyOp27
 70
     1
102
RTVSPropertyOp28
 70
     1
102
RTVSPropertyOp29
 70
     1
102
RTVSPropertyOp30
 70
     1
102
RTVSPropertyOp31
 70
     1
102
RTVSPropertyOp32
 70
     1
  0
XRECORD
  5
3F2
102
{ACAD_REACTORS
330
3F1
102
}
330
3F1
100
AcDbXrecord
280
     1
102
RTVSPropertyOp0
 70
     1
102
RTVSPropertyOp1
 70
     1
102
RTVSPropertyOp2
 70
     1
102
RTVSPropertyOp3
 70
     1
102
RTVSPropertyOp4
 70
     1
102
RTVSPropertyOp5
 70
     1
102
RTVSPropertyOp6
 70
     1
102
RTVSPropertyOp7
 70
     1
102
RTVSPropertyOp8
 70
     1
102
RTVSPropertyOp9
 70
     1
102
RTVSPropertyOp10
 70
     1
102
RTVSPropertyOp11
 70
     1
102
RTVSPropertyOp12
 70
     1
102
RTVSPropertyOp13
 70
     1
102
RTVSPropertyOp14
 70
     1
102
RTVSPropertyOp15
 70
     1
102
RTVSPropertyOp16
 70
     1
102
RTVSPropertyOp17
 70
     1
102
RTVSPropertyOp18
 70
     1
102
RTVSPropertyOp19
 70
     1
102
RTVSPropertyOp20
 70
     1
102
RTVSPropertyOp21
 70
     1
102
RTVSPropertyOp22
 70
     1
102
RTVSPropertyOp23
 70
     1
102
RTVSPropertyOp24
 70
     1
102
RTVSPropertyOp25
 70
     1
102
RTVSPropertyOp26
 70
     1
102
RTVSPropertyOp27
 70
     1
102
RTVSPropertyOp28
 70
     1
102
RTVSPropertyOp29
 70
     1
102
RTVSPropertyOp30
 70
     1
102
RTVSPropertyOp31
 70
     1
102
RTVSPropertyOp32
 70
     1
  0
XRECORD
  5
3F0
102
{ACAD_REACTORS
330
3EF
102
}
330
3EF
100
AcDbXrecord
280
     1
102
RTVSPropertyOp0
 70
     1
102
RTVSPropertyOp1
 70
     1
102
RTVSPropertyOp2
 70
     1
102
RTVSPropertyOp3
 70
     1
102
RTVSPropertyOp4
 70
     1
102
RTVSPropertyOp5
 70
     1
102
RTVSPropertyOp6
 70
     1
102
RTVSPropertyOp7
 70
     1
102
RTVSPropertyOp8
 70
     1
102
RTVSPropertyOp9
 70
     1
102
RTVSPropertyOp10
 70
     1
102
RTVSPropertyOp11
 70
     1
102
RTVSPropertyOp12
 70
     1
102
RTVSPropertyOp13
 70
     1
102
RTVSPropertyOp14
 70
     1
102
RTVSPropertyOp15
 70
     1
102
RTVSPropertyOp16
 70
     1
102
RTVSPropertyOp17
 70
     1
102
RTVSPropertyOp18
 70
     1
102
RTVSPropertyOp19
 70
     1
102
RTVSPropertyOp20
 70
     1
102
RTVSPropertyOp21
 70
     1
102
RTVSPropertyOp22
 70
     1
102
RTVSPropertyOp23
 70
     1
102
RTVSPropertyOp24
 70
     1
102
RTVSPropertyOp25
 70
     1
102
RTVSPropertyOp26
 70
     1
102
RTVSPropertyOp27
 70
     1
102
RTVSPropertyOp28
 70
     1
102
RTVSPropertyOp29
 70
     1
102
RTVSPropertyOp30
 70
     1
102
RTVSPropertyOp31
 70
     1
102
RTVSPropertyOp32
 70
     1
  0
XRECORD
  5
3EA
102
{ACAD_REACTORS
330
3E9
102
}
330
3E9
100
AcDbXrecord
280
     1
102
RTVSPropertyOp0
 70
     1
102
RTVSPropertyOp1
 70
     1
102
RTVSPropertyOp2
 70
     1
102
RTVSPropertyOp3
 70
     1
102
RTVSPropertyOp4
 70
     1
102
RTVSPropertyOp5
 70
     1
102
RTVSPropertyOp6
 70
     1
102
RTVSPropertyOp7
 70
     1
102
RTVSPropertyOp8
 70
     1
102
RTVSPropertyOp9
 70
     1
102
RTVSPropertyOp10
 70
     1
102
RTVSPropertyOp11
 70
     1
102
RTVSPropertyOp12
 70
     1
102
RTVSPropertyOp13
 70
     1
102
RTVSPropertyOp14
 70
     1
102
RTVSPropertyOp15
 70
     1
102
RTVSPropertyOp16
 70
     1
102
RTVSPropertyOp17
 70
     1
102
RTVSPropertyOp18
 70
     1
102
RTVSPropertyOp19
 70
     1
102
RTVSPropertyOp20
 70
     1
102
RTVSPropertyOp21
 70
     1
102
RTVSPropertyOp22
 70
     1
102
RTVSPropertyOp23
 70
     1
102
RTVSPropertyOp24
 70
     1
102
RTVSPropertyOp25
 70
     1
102
RTVSPropertyOp26
 70
     1
102
RTVSPropertyOp27
 70
     1
102
RTVSPropertyOp28
 70
     1
102
RTVSPropertyOp29
 70
     1
102
RTVSPropertyOp30
 70
     1
102
RTVSPropertyOp31
 70
     1
102
RTVSPropertyOp32
 70
     1
  0
XRECORD
  5
3EC
102
{ACAD_REACTORS
330
3EB
102
}
330
3EB
100
AcDbXrecord
280
     1
102
RTVSPropertyOp0
 70
     1
102
RTVSPropertyOp1
 70
     1
102
RTVSPropertyOp2
 70
     1
102
RTVSPropertyOp3
 70
     1
102
RTVSPropertyOp4
 70
     1
102
RTVSPropertyOp5
 70
     1
102
RTVSPropertyOp6
 70
     1
102
RTVSPropertyOp7
 70
     1
102
RTVSPropertyOp8
 70
     1
102
RTVSPropertyOp9
 70
     1
102
RTVSPropertyOp10
 70
     1
102
RTVSPropertyOp11
 70
     1
102
RTVSPropertyOp12
 70
     1
102
RTVSPropertyOp13
 70
     1
102
RTVSPropertyOp14
 70
     1
102
RTVSPropertyOp15
 70
     1
102
RTVSPropertyOp16
 70
     1
102
RTVSPropertyOp17
 70
     1
102
RTVSPropertyOp18
 70
     1
102
RTVSPropertyOp19
 70
     1
102
RTVSPropertyOp20
 70
     1
102
RTVSPropertyOp21
 70
     1
102
RTVSPropertyOp22
 70
     1
102
RTVSPropertyOp23
 70
     1
102
RTVSPropertyOp24
 70
     1
102
RTVSPropertyOp25
 70
     1
102
RTVSPropertyOp26
 70
     1
102
RTVSPropertyOp27
 70
     1
102
RTVSPropertyOp28
 70
     1
102
RTVSPropertyOp29
 70
     1
102
RTVSPropertyOp30
 70
     1
102
RTVSPropertyOp31
 70
     1
102
RTVSPropertyOp32
 70
     1
  0
XRECORD
  5
3E2
102
{ACAD_REACTORS
330
3E1
102
}
330
3E1
100
AcDbXrecord
280
     1
102
RTVSPropertyOp0
 70
     1
102
RTVSPropertyOp1
 70
     1
102
RTVSPropertyOp2
 70
     1
102
RTVSPropertyOp3
 70
     1
102
RTVSPropertyOp4
 70
     1
102
RTVSPropertyOp5
 70
     1
102
RTVSPropertyOp6
 70
     1
102
RTVSPropertyOp7
 70
     1
102
RTVSPropertyOp8
 70
     1
102
RTVSPropertyOp9
 70
     1
102
RTVSPropertyOp10
 70
     1
102
RTVSPropertyOp11
 70
     1
102
RTVSPropertyOp12
 70
     1
102
RTVSPropertyOp13
 70
     1
102
RTVSPropertyOp14
 70
     1
102
RTVSPropertyOp15
 70
     1
102
RTVSPropertyOp16
 70
     1
102
RTVSPropertyOp17
 70
     1
102
RTVSPropertyOp18
 70
     1
102
RTVSPropertyOp19
 70
     1
102
RTVSPropertyOp20
 70
     1
102
RTVSPropertyOp21
 70
     1
102
RTVSPropertyOp22
 70
     1
102
RTVSPropertyOp23
 70
     1
102
RTVSPropertyOp24
 70
     1
102
RTVSPropertyOp25
 70
     1
102
RTVSPropertyOp26
 70
     1
102
RTVSPropertyOp27
 70
     1
102
RTVSPropertyOp28
 70
     1
102
RTVSPropertyOp29
 70
     1
102
RTVSPropertyOp30
 70
     1
102
RTVSPropertyOp31
 70
     1
102
RTVSPropertyOp32
 70
     1
  0
XRECORD
  5
3D6
102
{ACAD_REACTORS
330
3D5
102
}
330
3D5
100
AcDbXrecord
280
     1
102
RTVSPropertyOp0
 70
     1
102
RTVSPropertyOp1
 70
     1
102
RTVSPropertyOp2
 70
     1
102
RTVSPropertyOp3
 70
     1
102
RTVSPropertyOp4
 70
     1
102
RTVSPropertyOp5
 70
     1
102
RTVSPropertyOp6
 70
     1
102
RTVSPropertyOp7
 70
     1
102
RTVSPropertyOp8
 70
     1
102
RTVSPropertyOp9
 70
     1
102
RTVSPropertyOp10
 70
     1
102
RTVSPropertyOp11
 70
     1
102
RTVSPropertyOp12
 70
     1
102
RTVSPropertyOp13
 70
     1
102
RTVSPropertyOp14
 70
     1
102
RTVSPropertyOp15
 70
     1
102
RTVSPropertyOp16
 70
     1
102
RTVSPropertyOp17
 70
     1
102
RTVSPropertyOp18
 70
     1
102
RTVSPropertyOp19
 70
     1
102
RTVSPropertyOp20
 70
     1
102
RTVSPropertyOp21
 70
     1
102
RTVSPropertyOp22
 70
     1
102
RTVSPropertyOp23
 70
     1
102
RTVSPropertyOp24
 70
     1
102
RTVSPropertyOp25
 70
     1
102
RTVSPropertyOp26
 70
     1
102
RTVSPropertyOp27
 70
     1
102
RTVSPropertyOp28
 70
     1
102
RTVSPropertyOp29
 70
     1
102
RTVSPropertyOp30
 70
     1
102
RTVSPropertyOp31
 70
     1
102
RTVSPropertyOp32
 70
     1
  0
XRECORD
  5
3EE
102
{ACAD_REACTORS
330
3ED
102
}
330
3ED
100
AcDbXrecord
280
     1
102
RTVSPropertyOp0
 70
     1
102
RTVSPropertyOp1
 70
     1
102
RTVSPropertyOp2
 70
     1
102
RTVSPropertyOp3
 70
     1
102
RTVSPropertyOp4
 70
     1
102
RTVSPropertyOp5
 70
     1
102
RTVSPropertyOp6
 70
     1
102
RTVSPropertyOp7
 70
     1
102
RTVSPropertyOp8
 70
     1
102
RTVSPropertyOp9
 70
     1
102
RTVSPropertyOp10
 70
     1
102
RTVSPropertyOp11
 70
     1
102
RTVSPropertyOp12
 70
     1
102
RTVSPropertyOp13
 70
     1
102
RTVSPropertyOp14
 70
     1
102
RTVSPropertyOp15
 70
     1
102
RTVSPropertyOp16
 70
     1
102
RTVSPropertyOp17
 70
     1
102
RTVSPropertyOp18
 70
     1
102
RTVSPropertyOp19
 70
     1
102
RTVSPropertyOp20
 70
     1
102
RTVSPropertyOp21
 70
     1
102
RTVSPropertyOp22
 70
     1
102
RTVSPropertyOp23
 70
     1
102
RTVSPropertyOp24
 70
     1
102
RTVSPropertyOp25
 70
     1
102
RTVSPropertyOp26
 70
     1
102
RTVSPropertyOp27
 70
     1
102
RTVSPropertyOp28
 70
     1
102
RTVSPropertyOp29
 70
     1
102
RTVSPropertyOp30
 70
     1
102
RTVSPropertyOp31
 70
     1
102
RTVSPropertyOp32
 70
     1
  0
ENDSEC
  0
EOF
